» » »

Oasis, Hello Bass tabs (ver.2)

Artists:  A B C D E F G H I J K L M N O P Q R S T U V W X Y Z # 

Hello Bass tabs (ver.2)

Oasis Tabs
Rating:
0/5 (0 votes)
Hello lessons Tabs too difficult? Try these video lessons and learn fast
                Hello from the album (Whats the Story) Morning Glory.

Intro/Verse
|----------------------------------------------------------------------|
|----------------------------------------------------------------------|
|-0--0--0--7/8-8--8-0--0--0--7/8-8--8-0--0--0--7/8-8--8----------------|
|-------------------------------------------------------8--8--7--h8p7--| x6


Chorus
"We live in the shadows"
|----------------------------------------------------|
|----------------------------------------------------|
|----------------------------------------------------|
|-0--0-0--0-0--5--5-5--5-5-5-1--1--1--1--3--3--3--3--|

-------------------------------------------------|
-------------------------------------------------|
-3--3--2--2--0--0--0--0--------------------------|
-------------------------1--1--1--1--3--3--3--3--|

-----------------------------------------------------|
-----------------------------------------------------|
-3--3--2--2--0--0--0--0--8--8--8--8--10--10--10--10--|
-----------------------------------------------------|


Verse

Chorus
"We live in the shadows"
|----------------------------------------------------|
|----------------------------------------------------|
|----------------------------------------------------|
|-0--0-0--0-0--5--5-5--5-5-5-1--1--1--1--3--3--3--3--|

-------------------------------------------------|
-------------------------------------------------|
-3--3--2--2--0--0--0--0--------------------------|
-------------------------1--1--1--1--3--3--3--3--|

------------------------------------------------------------|
------------------------------------------------------------|
-3--3--2--2--0--0--0--0-------------------------------------|
-------------------------1--1--1--1--3--3--3--3--3--3--3--3-|


Ending

"Hello__ Hello__"
|---------------------------------------------|
|---------------------------------------------|
|---------------------------------------------|
|-1--1-1---3--3-3---5--5--5-55-55--5--5--5--3-|

"Hello__ Hello__"
|--------------------------------------------------------|
|--------------------------------------------------------|
|--------------------------------------------------------|
|-1--1--1--1--3--3--3--3--5--5--5-3--h5p3--5--5--3--5-3--| x6

|----------------------------|
|----------------------------|
|----------------------------|
|-1--1--1--1--3----4----5----|
            

comments powered by Disqus
↑ Back to top | Oasis Bass for Hello. Lyrics for acoustic guitar and electric guitar. Tablatures and chords are parodies/interpretations of the original songs. You may use it for private study, scholarship, research or language learning purposes only