>
 >
Hello 2

Hello 2 Guitar Tabs

Oasis - Hello 2 chords, tabs, tablatures, lyrics

Guitar lessons | Add/correct | Request | Top 50 tabs Artists:  A B C D E F G H I J K L M N O P Q R S T U V W X Y Z 0-9

Hello 2 Guitar Tabs – Oasis

CD, Sheet music, Poster

Do you like Hello 2? Share with your friends now
Bass TabsBass Tabs v2ChordsChords v2TabsTabs v2Tabs v3Ukulele
| Tuning:  Standard E -> E A D G B E         |
**********************************************
   _________________
  /   By the way... \
 /   /  -> slide up  \
/    ^  -> bend       \
|    h  -> hammer on  |
 **********************

          \\.INTRO.//
E--0--0---0-0-0--0--0---0-0-0--0--0---0-0-0-----------------
B--1--1---1-1-1--1--1---1-1-1--1--1---1-1-1-----------------
G--2--2---2-2-2--2--2---2-2-2--2--2---2-2-2--0--0-0-0-------   x2
D--2--2---3-3-3--2--2---3-3-3--2--2---3-3-3--2--2-2-0-------
A--0--0----------0--0----------0--0----------3--3-3-2-------
E-----------------------------------------------------0-3-0-


          \\.VERSE.//
E-----------------------------------------------------------
B-----------------------------------------------------------
G--2--2---2-2-2--2--2---2-2-2--2--2---2-2-2--0--0-0-0-------   x4
D--2--2---2-2-2--2--2---2-2-2--2--2---2-2-2--2--2-2-2-------
A--0--0---3-3-3--0--0---3-3-3--0--0---3-3-3--3--3-3-2-------
E-----------------------------------------------------0-3-0-

E------0-----0-0-0-0------0--0----0-0-0------------------------3-3-3-3-
B------0-----0-0-0-0------1--1----1-1-1------1--1----1-1-1-----0-0-0-0-
G------1-----1-1-1-1------2--2----2-2-2------2--2----2-2-2-----0-0-0-0-
D------2-----2-2-2-2------2--2----2-2-2------3--3----3-3-3-----0-0-0-0-
A---------------------0---------0------------3--3----3-3-3-------------
E--0------0------------------------------1---------1--------3----------

E--3-3-
B--0-0-
G--0-0-
D--0-0-
A------
E------


          \\.CHORUS.//
E-----0--0-----0--0-----0--0-----0-0-0--------------------------3-3-3-3
B-----1--1-----1--1-----1--1-----1-1-1-----1--1-----1--1--0-----0-0-0-0
G-----0--0-----0--0-----2--2-----2-2-2-----2--2-----2--2--0-----0-0-0-0
D------------------------------------------3--3-----3--3--0-----0-0-0-0
A--3--------2--------0--------0------------3--3-----3--3---------------
E---------------------------------------1--------1-----------3---------

E--3-3-3-----0--0-----0--0-----0--0-----0-0-0---------------------
B--0-0-0-----1--1-----1--1-----1--1-----1-1-1------1--1-----1-1-1-
G--0-0-0-----0--0-----0--0-----2--2-----2-2-2------2--2-----2-2-2-
D--0-0-0-------------------------------------------3--3-----3-3-3-
A---------3--------2--------0--------0-------------3--3-----3-3-3-
E-----------------------------------------------1--------1--------


))part1((
E---------------------------------------------------------------------
B---------------------------------------------------------------------
G--/7--7-7-7-7-7-7--2--2--2-2-2--2--2-----------2--2--2-2-2--0--0-----
D--/7--7-7-7-7-7-7--2--2--2-2-2--2--2-----------2--2--2-2-2--2--2-----
A--/5--5-5-5-5-5-5--0--0--3-3-3--0--0-----------0--0--3-3-3--3--3-----
E-------------------------------------0-3-0-3^--------------------0-3-

E------
B------
G------
D------
A------
E--0-3-


))part2((
E--------------------------------------------------
B----3-3-3-3-3-3-3-3-3-3-3-3-3-3-3-3-3-3-3-3-3-3-3-
G----2-2-2-2-2-2-2-2-2-2-2-2-2-2-2-2-2-2-2-2-2-2-2-
D----0-0-0-0-0-0-0-0-0-0-0-0-0-0-0-0-0-0-0-0-0-0-0-
A--------------------------------------------------
E--2-----------------------------------------------


          \\.OUTRO.//
E---------------------------3--3-----3--3------------------------------
B------1--1-----1--1--0------0--0----0--0-----1-----1-------------1----
G------2--2-----2--2--0------0--0----0--0--2--2--2--2---2---2--2--2--2-
D------3--3-----3--3--0------0--0----0--0-----2---------2---2-----2----
A------3--3-----3--3------------------------------------0---0----------
E--1---------1-----------3--------3------------------------------------


E-----------------------------------------3--3-----3--3---------------
B--1----------------1--1-----1--1--0------0--0-----0--0-----1-----1---
G--2---2---0h2------2--2-----2--2--0------0--0-----0--0--2--2--2--2---
D------2------------3--3-----3--3--0------0--0-----0--0-----2---------
A------0------------3--3-----3--3-------------------------------------
E---------------1---------1-----------3---------3---------------------

E---------------------------------------------------------3--3-----3--
B------------1-----1----------------1--1-----1--1--0------0--0-----0--
G--2---2--2--2--2--2---2---0h2------2--2-----2--2--0------0--0-----0--
D--2---2-----2---------2------------3--3-----3--3--0------0--0-----0--
A--0---0---------------0------------3--3-----3--3---------------------
E-------------------------------1---------1-----------3---------3-----

E--3------------------------------------------------------------------
B--0-----1-----1-------------1-----1---2------------1--1-----1--1--0--
G--0--2--2--2--2---2---2--2--2--2--2---2---0h2------2--2-----2--2--0--
D--0-----2---------2---2-----2---------0------------3--3-----3--3--0--
A------------------0---0----------------------------3--3-----3--3-----
E-----------------------------------------------1---------1-----------


))part1((
E------3--3-----3--3---------------------------------------------
B------0--0-----0--0---------1------1--1--1------1------1--1--1--
G------0--0-----0--0--2------2------2--2--2------2------2--2--2--
D------0--0-----0--0---------2------2--2--2------2------2--2--2--
A------------------------0-------0-----------0-------0-----------
E--3---------3---------------------------------------------------


))part2((
E------------------0~~~~~~~~~~~~
B------------------1~~~~~~~~~~~~
G--4---4---5---5---2~~~~~~~~~~~~
D--5---5---6---6---2~~~~~~~~~~~~
A--5---5---6---6---0~~~~~~~~~~~~
E--3---3---4---4----------------





\/\/\ORDER OF EVENTS/\/\/
Intro
Verse
Chorus
Chorus Part1
Verse
Chorus
Chorus Part2
Outro
Outro Part1
Outro
Outro Part2





                [be mellow]





Comments


Popular Oasis tabs & chords
Go Let It Out Bass Tabs
I Hope I Think I Know 1 Chords
A Bell Will Ring Tabs
Digsy's Dinner Tabs
Dont Go Away 2 Tabs
Force Of Nature 2 Tabs
Gas Panic Live Tabs
Go Let It Out! 2 Tabs
I Am The Walrus 1 Tabs
Stand By Me Intro Tabs


Song lyrics



↑ Back to top | Tablatures and chords are parodies/interpretations of the original songs. You may use it for private study, scholarship, research or language learning purposes only
© 2014 AZChords.com Contact us | Privacy policy | DMCA | Add/correct tabs | Request tabs | Top 50 tabs