» » »

Half The World Away Bass tabs (ver.1)

Artists:  A B C D E F G H I J K L M N O P Q R S T U V W X Y Z # 

Half The World Away Bass tabs (ver.1)

Oasis
Rating:
0/5 (0 votes)

Tabs too difficult? Try these video lessons and learn fast.
                Hie, this is my first bass tab. I hope you'll enjoy it =)

Capo 2

Intro 

|------------------------|
|------------------------|
|----3---------3---------|
|---------1---------1----|

Verse 1 


|---------------------------------------------|
|---------------------------------------------|   X2
|----3---------3---------3--2--0----5---------|
|---------1---------1--------------------1----|

I would like to leave this city
This old town don't smell too pretty and
I can feel the warning signs running around my mind
And when I leave this island I'll book myself into a soul asylum
Cos I can feel the warning signs running around my mind


Chorus


|--------------------------------------------|
|--------------2-----------------------------|
|----0----3---------3------------------------|
|------------------------1----2----3----1----|

So here I go, Im still scratching around the same old hole
My body feels young but my mind is very old

|--------------------------------------------------------------------------------|
|--------------2-----------------------------------------------------------------|
|----0----3---------3------------------------3--2--0----5------------------------|
|------------------------1----1----1----1--------------------1----1----1----1----|

So what do you say? 
You can give me the dreams that are mine anyway
Youre half the world away
Half the world away
Half the world away
Ive been lost, Ive been found but I don't feel down.



Bridge (like the Intro)

Verse 2

And when I leave this planet
You know I'd stay but I just can't stand it and
I can feel the warning signs running around my mind
And if I could leave this spirit I'd find me a hole and I'll live in it cos
I can feel the warning signs running around my mind


Chorus


So here I go still scratching around in the same old hole
My body feels young but my mind if very old
So what do you say? 
You can give me the dreams that are mine anyway
Youre half the world away
Half the world away
Half the world away
Ive been lost, Ive been found but I don't feel down
No I don't feel down
No I don't feel down


Outro (like the intro !) until the end of the song


I don't feel down
I don't feel down
I don't feel down
I don't feel down
            
Tabs too difficult? Try these video lessons and learn fast.




comments powered by Disqus
↑ Back to top | Tablatures and chords are parodies/interpretations of the original songs. You may use it for private study, scholarship, research or language learning purposes only