» » »

Oasis, Half The World Away Bass tabs (ver.2)

Artists:  A B C D E F G H I J K L M N O P Q R S T U V W X Y Z # 

Half The World Away Bass tabs (ver.2)

Oasis Tabs
Rating:
0/5 (0 votes)
Half The World Away lessons Tabs too difficult? Try these video lessons and learn fast
                -------------------------------------------------------------------------------
                             HALF THE WORLD AWAY - Oasis
-------------------------------------------------------------------------------

This song is up there with the greatest, so was disappointed at the previous tab.

Where I have a '~' just means hold the note

Tuning: Drop D - DADG

Start at 0:45

G|---------------------------------------------------------------------------|
D|---------------------------------------------------------------------------|
A|---------------------7~------12~------------------5-5-5-5-10~--------------|
D|-7-7-7-7-10-10-10-10------------------10-10-10-10--------------------------|

G|---------------------------------------------------------------------------|
D|---------------------------------------------------------------------------|
A|---------------------7-7-7-7-12~--------8~--------8~-----------------------|
D|-7-7-7-7-10-10-10-10-----------------------------------10-10-9-9-7-7-7-7---|

G|--------------------------| Stop at 1:31
D|--------------------------|
A|-5~------/8~------8~------|
D|--------------------------|

Start at 1:58

G|----------------------------------------------------------------------------------------------|
D|----------------------------------------------------------------------------------------------|
A|-10-12-10----------8~----10-12-10------------8~----10-12-10--------------------5-5-5-5-8~-----|
d|----------10~---------------------10~-----------------------10-10-9-9-7-7-7-7-----------------|

G|---------------------------------------------------------------------------|
D|---------------------------------------------------------------------------|
A|---------------------7~------12~------------------5-5-5-5-10~--------------|
D|-7-7-7-7-10-10-10-10------------------10-10-10-10--------------------------|

G|---------------------------------------------------------------------------|
D|---------------------------------------------------------------------------|
A|---------------------7-7-7-7-12~--------8~--------8~-----------------------|
D|-7-7-7-7-10-10-10-10-----------------------------------10-10-9-9-7-7-7-7---|

G|-----------------------------------------------------------------------------|
D|-----------------------------------------------------------------------------|
A|-5~------/8~------8~-------8~--------8~----------------8~----10-12-10--------|
D|----------------------------------------------10~----------------------------|

G|----------------------------------|
D|----------------------------------|
A|--------------8~----10-12-10------|
D|-10--10-10-10---------------------| x10

You may have noticed one or two slides are missing, to correct this keep, it all on the
D string.

| /  slide up
| \  slide down
| h  hammer-on
| p  pull-off
| ~  HOLD
| +  harmonic
| x  Mute note
===============================================================================
            
Submit corrections

comments powered by Disqus
↑ Back to top | Oasis Bass for Half The World Away. Lyrics for acoustic guitar and electric guitar. Tablatures and chords are parodies/interpretations of the original songs. You may use it for private study, scholarship, research or language learning purposes only