» » »

Oasis, Half The World Away Tabs (ver.1)

Artists:  A B C D E F G H I J K L M N O P Q R S T U V W X Y Z # 

Half The World Away Tabs (ver.1)

Oasis Tabs
 Rating:
4/5 (4 votes)
Half The World Away lessons Tabs too difficult? Try these video lessons and learn fast
1
                "Half The World Away" (from the single "Whatever")
Translated by Alex Wilkes
 

=Intro=

      C    F   

E |---0----1----
B |---1----1----
G |---0----2----  x3
D |---2----3----
A |---3----3----
E |--------1----

=Verse1=

      C    F     C  Em Am D Dsus4 D  F

E |---0----1-----0--0--0--2---3---2---1----
B |---1----1-----1--0--1--3---3---3---1----
G |---0----2-x2--0--0--2--2---2---2---2----
D |---2----3-----2--2--2--0---0---0---3----
A |---3----3-----3--2--0--------------3----
E |--------1--------0-----------------1----

      C    F     C  Em Am D Dsus4 D  F

E |---0----1-----0--0--0--2---3---2---1----
B |---1----1-----1--0--1--3---3---3---1----
G |---0----2-x2--0--0--2--2---2---2---2----
D |---2----3-----2--2--2--0---0---0---3----
A |---3----3-----3--2--0--------------3----
E |--------1--------0-----------------1----

=Chorus=

      Am  C  E7  Am  F  Fm G  G7  Am C  E7 Am F Fm  C  Em Am  D Dsus4  D  F

E |----0--0--0---0---1--1--3--1---0--0--0--0--1--1--0--0--0---2---3----2--1-
B |----1--1--0---1---1--1--3--0---1--1--0--1--1--1--1--0--1---3---3----3--1-
G |----2--0--1---2---2--1--0--0---2--0--1--2--2--1--0--0--2---2---2----2--2-
D |----2--2--0---2---3--3--0--0---2--2--0--2--3--3--2--2--2---0---0----0--3-
A |----0--3--2---0---3--3--2--2---0--3--2--0--3--3--3--2--0---------------3-
E |----------0-------1--1--3--3---------0-----1--1-----0------------------1-

=Verse2=

      C    F     C  Em Am D Dsus4 D  F

E |---0----1-----0--0--0--2---3---2---1----
B |---1----1-----1--0--1--3---3---3---1----
G |---0----2-x2--0--0--2--2---2---2---2----
D |---2----3-----2--2--2--0---0---0---3----
A |---3----3-----3--2--0--------------3----
E |--------1--------0-----------------1----

      C    F     C  Em Am D Dsus4 D  F

E |---0----1-----0--0--0--2---3---2---1----
B |---1----1-----1--0--1--3---3---3---1----
G |---0----2-x2--0--0--2--2---2---2---2----
D |---2----3-----2--2--2--0---0---0---3----
A |---3----3-----3--2--0--------------3----
E |--------1--------0-----------------1----

=Chorus=

      Am  C  E7  Am  F  Fm G  G7  Am C  E7 Am F Fm  C  Em Am  D Dsus4  D  Fadd9

E |----0--0--0---0---1--1--3--1---0--0--0--0--1--1--0--0--0---2---3----2--1-
B |----1--1--0---1---1--1--3--0---1--1--0--1--1--1--1--0--1---3---3----3--1-
G |----2--0--1---2---2--1--0--0---2--0--1--2--2--1--0--0--2---2---2----2--2-
D |----2--2--0---2---3--3--0--0---2--2--0--2--3--3--2--2--2---0---0----0--3-
A |----0--3--2---0---3--3--2--2---0--3--2--0--3--3--3--2--0---------------0-
E |----------0-------1--1--3--3---------0-----1--1-----0------------------3-

=Outro=

      C    F   

E |---0----1----
B |---1----1----
G |---0----2----
D |---2----3----
A |---3----3----
E |--------1----
            
Submit corrections

comments powered by Disqus
↑ Back to top | Oasis Tabs for Half The World Away. Lyrics for acoustic guitar and electric guitar. 1 Tablatures and chords are parodies/interpretations of the original songs. You may use it for private study, scholarship, research or language learning purposes only