» » »

Oasis, Cast No Shadow Tabs (ver.2)

Artists:  A B C D E F G H I J K L M N O P Q R S T U V W X Y Z # 

Cast No Shadow Tabs (ver.2)

Oasis Tabs
 Rating:
4/5 (4 votes)
Cast No Shadow lessons Tabs too difficult? Try these video lessons and learn fast
                Cast No Shadow

E-------7-
B---------
G--5/-7---(Riff 1) play this in the beginning and some other places
D--------- 
A---------
E---------


A7sus4
Here's a thought for every man who tries to understand
 		G
what is in his hands (what's in his hands)
He walks along the open road of love and life, surviving if he can


E--12---------------
B-----12------------
G----------11/12-12-(Riff 2)
D-------------------
A-------------------
E-------------------

Em 		    D 		     C 			G
Bound w(riff 2)ith all the weight of all the words he tried to say
chained t(riff 2)o all the places that he never wished to stay
But w(riff 2)ith all the weight of all the words he tried to say
Em 		D 	C
As he faced the sun he cast no shadow

E-------12------10--------------
B----------12-------------------
G-10/12-----------12--12/16-----(riff 3)
D-------------------------------
A-------------------------------
E-------------------------------

G 		A7sus4 			C 	Em-D
As they took his soul they stole his pride(riff 3)
As they took his soul they stole his pride(Riff 3)
As they took his soul they stole his pride(Riff 3)
Em 		D 	C
As he faced the sun he cast no shadow

Here's a thought for every man who tries to understand
 		G
what is in his hands (what's in his hands)
He walks along the open road of love and life, 
surviving if he can (but only if he can)

Bound with all the weight of all the words he tried to say
chained to all the places that he never wished to stay
Bound with all the weight of all the words he tried to say
As he faced the sun he cast no shadow

As they took his soul they stole his pride (x3)
As he faced the sun he cast no shadow (x4)
(ends on a C-G)

Last Bit                       Then The End

E------------------------------------------
B------------------------------------------
G-9s7s9-rep.several times----------4-5s7---
D------------------------------------------
A------------------------------------------
E------------------------------------------
            
Submit corrections

comments powered by Disqus
↑ Back to top | Oasis Tabs for Cast No Shadow. Lyrics for acoustic guitar and electric guitar. Tablatures and chords are parodies/interpretations of the original songs. You may use it for private study, scholarship, research or language learning purposes only