array
(
    
'castnoshadow' => 'castnoshadow'
    'oasis' 
=> 'oasis'
)
Cast No Shadow Bass tabs (ver. 1) by Oasis @ AZ CHORDS.COM
» » »

Cast No Shadow Bass tabs (ver.1)

Artists:  A B C D E F G H I J K L M N O P Q R S T U V W X Y Z # 

Cast No Shadow Bass tabs (ver.1)

Oasis
Rating:
0/5 (0 votes)

Hard to play? Try these video lessons and learn fast.
                Oasis
Cast No Shadow


standard tuning EADG

Symbols:
p = pull off
h = hammer on
/ = slide up
\ = slide down
() = don't have to play

Intro
|-12------------------------------------------------------
|---------------------------------------------------------
|-------12----14--12--\------------------12--10-----------
|------------------------3----1-3-1-3------------12--10\--

-----------------------------------------------
--------------------------------7--5-----------
--------------------------------------7--5--\--
-5--5----5--5-5----3/5--5--5-------------------

------------------------------------|
------------------------------------|
------------------------------------|
-3--3----3--3-3----1/3-3----3--3-3--|


Verse
Here's a thought...
|-----------------------------------------
|-----------------------------7--5--------
|-----------------------------------7--\--
|-5--5----5--5-5----5--5------------------

------------------------------------
------------------------------------
------------------------------------
-3--3----3--3-3----1/3-3----3--3-3--

----------------------------------------
----------------------------5--7/12--\--
-------------------------7--------------
-5--5----5--5-5----5--5-----------------

--------------------------------------------|
--------------------------------------------|
--------------------------------------------|
-3--3----3--3-3----1/3-3--3----3--3-3--3--3-|

Pre - Chorus
Bound with all the weight...
|------9-----------------------------------------|
|------------------------------------------------|
|-7---------5-5-5--5----3----3-------------------|
|---------------------------------3--3--3-(1)-3--| x3

As he faced the sun...
|---------------------------------------|
|--------------------7/12----12----10\--|
|------5----3---------------------------|
|-0-------------------------------------|

Chorus
As they took...
|----------------------------------------------
|-------------------------------------7/12--\--
|----------------------------------------------
|-3--3----3--3-3----3/5-5--5----5--5-----------

--------------------------------------------
--------------------------------------------
-----------------------7--5--7-----5--5h7-5-
-8--8----8--8-8--8--0-----------0-----------

------------------------------------------
------------------------------------------
------------------------------------------
-3--3----3--3-3----3/5-5--5----5--5-5--5--

--------------------------------------------
-----------------------------------7/12--\--
-----------------------7--5--7--------------
-8--8----8--8-8--8--0-----------0-----------

------------------------------------------
------------------------------------------
------------------------------------------
-3--3----3--3-3----3/5-5--5----5--5-5--5--

--------------------------------------------
-----------------------------------7/12--\--
-----------------------7--5--7--------------
-8--8----8--8-8--8--0-----------0-----------

				Musical interlude
--------------------------------------------------------
-----------------------------------7--5-----------------
-7----5----3--------3---3---3---3----------7--5--5h7p5--
--------------------------------------------------------

--------------------------------------
---------------------------5h7/12--\--
--------------------------------------
-5--5----5--5-5----5--5---------------

--------------------------------------------------------------
--------------------------------------------------------------
--------------------------------------------------------------
-3--3----3--3-3----1/3-3--3----3--3-3----5--5----5--5-5----5--

--------------------------------
----(10)-12----12-(14)-12--10\--
-12-----------------------------
--------------------------------

-----------------------------------------|
-----------------------------------------|
-----------------------------------------|
-3--3----3--3-3----1/3-3--3----3--3-3----|

Verse

Pre - Chorus
Bound with all the weight...
|------9-----------------------------------------|
|------------------------------------------------|
|-7---------5-5-5--5----3----3-------------------|
|---------------------------------3--3--3-(1)-3--| x3

As he faced the sun...
|------------------------------------------------|
|------------------------------------------------|
|------5----3--------8/12--10--10h12--10---------|
|-0--------------------------------------12--10\-|

Chorus/End
|--------------------------------------------
|------------------------------------7/12-\--
|--------------------------------------------
|-3--3----3--3-3--3--3/5-5--5---5--5---------

-----------------------------------------------
-----------------------------------------------
------------------------7--5--7-----5h7--5-----
-8--8----8--8-8--8---0-----------0----------7--

----------------------------------------------
----------------------------------------------
----------------------------------------------
-3--3----3--3-3--3--3/5-5--5---5--5-5--5---5--

----------------------------------------------------
-------------------------------------------------12-
-------------------------7--5--7-----12h10-12/15----
-8--8----8--8-8--8----0-----------0-----------------

---------------------------------------------
---------------------------------------------
---------------------------------------------
-3--3----3--3-3--3--3/5-5--5---5--5-5--5---5-

-------------------------------------------------
-------------------------------------------------
------------------------7--5--7-----7----7-/-10--
-8--8----8--8-8--8---0-----------0----10---------

---------------------------------------------
---------------------------------------------
---------------------------------------------
-3--3----3--3-3--3--3/5-5--5---5--5-5--5---5-

--------------------------------------------------
--------------------------------------------------
-------------------------7--5--7-----7\5-7/10-12--
-8--8----8--8-8--8----0-----------0---------------

(this is wrong)
---------------------------------------------------------------------------
------9---------7-----------------------------------3-5----5-7------5------
-7---------5---------3----3--3-3--3----3-3--3--3--5------7------5-7---7----
------------------------------------------------------------------------0--

---------------------------------------------------------------------------
------9---------7----------------------------------5-7----7-9/12--10-12-10-
-7---------5---------3----3--3-3--3----3-3--3/5--7------9------------------
---------------------------------------------------------------------------

----------------------------------------------------------------------------
------9---------7----------------------------------5-7----5h7/--12----12-12-
-7---------5---------3----3--3-3--3----3-3--3/5--7------7-------------------
----------------------------------------------------------------------------

--------------------------------------------------------|
------9---------7---------------------------------------|
-7---------5---------3----3--3-3--3-keep playing--3/15--|
--------------------------------------------------------|
            
Hard to play? Try these video lessons and learn fast. | Correct




comments powered by Disqus
↑ Back to top | Tablatures and chords are parodies/interpretations of the original songs. You may use it for private study, scholarship, research or language learning purposes only