» » »

Oasis, Bag It Up Tabs (ver.2)

Artists:  A B C D E F G H I J K L M N O P Q R S T U V W X Y Z # 

Bag It Up Tabs (ver.2)

Oasis Tabs
 Rating:
4.3/5 (6 votes)
Bag It Up lessons Tabs too difficult? Try these video lessons and learn fast
                Oasis
Bag it up
Dig Out Your Soul



Intro
e|------------------------x2-|
B|---------------------------|
G|---------------------------|
D|-5s7-7-5s7-7---------------|
A|-3s5-5-3s5-5-3s5-5-3s5-5---|
E|-------------1s3-3-1s3-3---|


Verse
e|------------------------x2-|--------------------------------x1-| x2
B|---------------------------|-----------------------------------|
G|---------------------------|-----------------------------------|
D|-5s7-7-5s7-7---------------|-----------------------------------|
A|-3s5-5-3s5-5-3s5-5-3s5-5---|-6-6-6-6-6-6-6-6-5-5-5-5-3-3-3-3---|
E|-------------1s3-3-1s3-3---|-4-4-4-4-4-4-4-4-3-3-3-3-1-1-1-1---|

after the second verse noel plays this

e|-------------------|
B|-------------------|
G|-------------------|
D|-------------------|
A|-7-7-7-7-7-7-7-7---|
E|-5-5-5-5-5-5-5-5---|

Bridge                                riff in between
e|--------------------------------x2-|----------------------|
B|-----------------------------------|----------------------|
G|-----------------------------------|-10H12-10H12-10H12-10-|
D|-----------------------------------|----------------------|
A|-6-6-6-6-5-5-5-5-3-3-3-3-5-5-5-5---|----------------------|
E|-4-4-4-4-3-3-3-3-1-1-1-1-3-3-3-3---|----------------------|

e|--------------------------------x2-|---------------------------------------------------|
B|-----------------------------------|---------------------------------------------------|
G|-----------------------------------|---------------------------------------------------|
D|-----------------------------------|---------------------------------------------------|
A|-6-6-6-6-5-5-5-5-3-3-3-3-5-5-5-5---|-5-5-5-5-5-5-5-5-7-7-7-7-7-7-7-7-7-7-7-7-7-7-7-7---|
E|-4-4-4-4-3-3-3-3-1-1-1-1-3-3-3-3---|-3-3-3-3-3-3-3-3-5-5-5-5-5-5-5-5-5-5-5-5-5-5-5-5---|

Chorus
e|------------------------------x3-|-----------------------------------------------------|
B|---------------------------------|-----------------------------------------------------|
G|---------------------------------|-----------------------------------------------------|
D|-----------------7-7-7-7-7-7-7-7-|-7-7-7-7-6-6-6-6-4-4-4-4-3-3-3-3---------------------|
A|-5-5-5-5-7-7-7-7-5-5-5-5-5-5-5-5-|-5-5-5-5-4-4-4-4-2-2-2-2-1-1-1-1-7-7-7-7-6-6-6-6-5---|
E|-3-3-3-3-5-5-5-5-----------------|---------------------------------5-5-5-5-4-4-4-4-3---|

Verse
e|------------------------x3-|--------------------------------x1-| x2
B|---------------------------|-----------------------------------|
G|---------------------------|-----------------------------------|
D|-5s7-7-5s7-7---------------|-----------------------------------|
A|-3s5-5-3s5-5-3s5-5-3s5-5---|-6-6-6-6-6-6-6-6-5-5-5-5-3-3-3-3---|
E|-------------1s3-3-1s3-3---|-4-4-4-4-4-4-4-4-3-3-3-3-1-1-1-1---|

Lead    repeat that accordingly
e|------|
B|-10---|
G|------|
D|------|
A|------|
E|------|


Bridge                                riff in between
e|--------------------------------x2-|----------------------|
B|-----------------------------------|----------------------|
G|-----------------------------------|-10H12-10H12-10H12-10-|
D|-----------------------------------|----------------------|
A|-6-6-6-6-5-5-5-5-3-3-3-3-5-5-5-5---|----------------------|
E|-4-4-4-4-3-3-3-3-1-1-1-1-3-3-3-3---|----------------------|

e|--------------------------------x2-|---------------------------------------------------|
B|-----------------------------------|---------------------------------------------------|
G|-----------------------------------|---------------------------------------------------|
D|-----------------------------------|---------------------------------------------------|
A|-6-6-6-6-5-5-5-5-3-3-3-3-5-5-5-5---|-5-5-5-5-5-5-5-5-7-7-7-7-7-7-7-7-7-7-7-7-7-7-7-7---|
E|-4-4-4-4-3-3-3-3-1-1-1-1-3-3-3-3---|-3-3-3-3-3-3-3-3-5-5-5-5-5-5-5-5-5-5-5-5-5-5-5-5---|

Chorus
e|------------------------------x7-|-----------------------------------------------------|
B|---------------------------------|-----------------------------------------------------|
G|---------------------------------|-----------------------------------------------------|
D|-----------------7-7-7-7-7-7-7-7-|-7-7-7-7-6-6-6-6-4-4-4-4-3-3-3-3---------------------|
A|-5-5-5-5-7-7-7-7-5-5-5-5-5-5-5-5-|-5-5-5-5-4-4-4-4-2-2-2-2-1-1-1-1-7-7-7-7-6-6-6-6-5---|
E|-3-3-3-3-5-5-5-5-----------------|---------------------------------5-5-5-5-4-4-4-4-3---|

Lead
e|------|
B|-10---|
G|------|
D|------|
A|------|
E|------|


Outro
e|---------------x16-|-----------|-----|
B|-------------------|-----------|-----|
G|-------------------|-----------|-----|
D|-5s7-7-5s7-7-5s7-7-|-7-7-7-7---|-7---|
A|-3s5-5-3s5-5-3s5-5-|-5-5-5-5---|-5---|
E|-------------------|-----------|-----|
            
Submit corrections

comments powered by Disqus
↑ Back to top | Oasis Tabs for Bag It Up. Lyrics for acoustic guitar and electric guitar. Tablatures and chords are parodies/interpretations of the original songs. You may use it for private study, scholarship, research or language learning purposes only