» » »

Bag It Up Tabs (ver.1)

Artists:  A B C D E F G H I J K L M N O P Q R S T U V W X Y Z # 

Bag It Up Tabs (ver.1)

Oasis
Rating:
4/5 (3 votes)

Hard to play? Try these video lessons and learn fast.
                Bands: Oasis

Drop D Tuning
DADGBE


I've tabbed this song for 1 guitar mainly because 
the 2nd guitar does'n stray very far away from the first.
The only difference being that, guitar 1 plays an open D chord,
While guitar 2 is playing a higher D chord on the 12th fret.
only in the chorus have i merged both guitars into 1.

(if you're intrested in learning other songs on the album, 
it may be uselful to know that the first three tracks are all in open 'D' tuning.)



(Slightly turn up your Distortion/Drive channels)


Main Riff/Intro
E------------------------------------|
B------------------------------------|
G-x-5H7-7-x-5h7-7-x------------------|
D-x-0-0-0-x-0-0-0-x-3/5-5-x-3/5-5-x--|
A-x-0-0-0-x-0-0-0-x-3/5-5-x-3/5-5-x--|
D-x-0-0-0-x-0-0-0-x-3/5-5-x-3/5-5-x--|

"Gold and silver and sunshine is risin up, 
 pour yourself another cup of lady grey,
 Take my hand in the mean time, 
 When you've had enough" 
 

(Fill1)
E----------------------------------|
B----------------------------------|
G----------------------------------|
D-3-3-3-3-3-3-3-3-2-2-2-2-1-1-1-1--|
A-3-3-3-3-3-3-3-3-2-2-2-2-1-1-1-1--|
D-3-3-3-3-3-3-3-3-2-2-2-2-1-1-1-1--|
"You'll find me on the edge of a runway babe""


Main Intro/Intro
E------------------------------------|
B------------------------------------|
G-x-5H7-7-x-5h7-7-x------------------|
D-x-0-0-0-x-0-0-0-x-3/5-5-x-3/5-5-x--|
A-x-0-0-0-x-0-0-0-x-3/5-5-x-3/5-5-x--|
D-x-0-0-0-x-0-0-0-x-3/5-5-x-3/5-5-x--|
"Tell the world that you love them, In a melody,
 Send my old piano and a telegram,
 Gotta get me a doctor, with a remedy,
 

(fill2)
E-----------------------------------------------------------------|
B-----------------------------------------------------------------|
G---------------------------------7-7-7-7-7-7-7-7-7-7-7-7-7-7-7-7-|
D-3-3-3-3-3-3-3-3-2-2-2-2-1-1-1-1-0-0-0-0-0-0-0-0-0-0-0-0-0-0-0-0-|
A-3-3-3-3-3-3-3-3-2-2-2-2-1-1-1-1-0-0-0-0-0-0-0-0-0-0-0-0-0-0-0-0-|
D-3-3-3-3-3-3-3-3-2-2-2-2-1-1-1-1-0-0-0-0-0-0-0-0-0-0-0-0-0-0-0-0-|
"I'm gonna take a walk with a monkey man"



Pre-Chorus (Rest palm softly near the bridge)
E--------------------------------------|
B--------------------------------------|
G--------------------------------------|
D-8-8-8-8-7-7-7-7-12-12-12-12-3-3-3-3--|
A-8-8-8-8-7-7-7-7-12-12-12-12-3-3-3-3--|
D-8-8-8-8-7-7-7-7-12-12-12-12-3-3-3-3--|
"Someone tell me im dreamin,"
 

E--------------------------------------------------|
B--------------------------------------------------|
G-----------------7-7-7-7-7-7-7-7-7-7-7-7-7-7-7-7--|
D-8-8-8-8-7-7-7-7-0-0-0-0-0-0-0-0-0-0-0-0-0-0-0-0--|
A-8-8-8-8-7-7-7-7-0-0-0-0-0-0-0-0-0-0-0-0-0-0-0-0--|
E-8-8-8-8-7-7-7-7-0-0-0-0-0-0-0-0-0-0-0-0-0-0-0-0--|
"The Freaks are risin up through the floor,"

(little lead fill)
E-----------------------|
B--7h8--7h8--7~---------|
G--7----7----7----------|
D-----------------------|
A-----------------------|
D-----------------------|

E--------------------------------------|
B--------------------------------------|
G--------------------------------------|
D-8-8-8-8-7-7-7-7-12-12-12-12-3-3-3-3--|
A-8-8-8-8-7-7-7-7-12-12-12-12-3-3-3-3--|
D-8-8-8-8-7-7-7-7-12-12-12-12-3-3-3-3--|
"Everything i believe in."


E-----------------------------------------------|
B-----------------------------------------------|
G-----------------------------------------------|
D-5-5-5-5-5-5-5-7-7-7-7-7-7-7-7-7-7-7-7-7-7-7-\-|
A-5-5-5-5-5-5-5-7-7-7-7-7-7-7-7-7-7-7-7-7-7-7-\-|
D-5-5-5-5-5-5-5-7-7-7-7-7-7-7-7-7-7-7-7-7-7-7-\-|
"Is telling me that i want more, more, more, 


Chorus
E----------------------------------------------|
B----------------------------------------------|
G----------------------------------------------|
D-7-7-7-7-10-10-10-10-12-12-12-12-12-12-12-12--|
A-7-7-7-7-10-10-10-10-12-12-12-12-12-12-12-12--|
D-7-7-7-7-10-10-10-10-12-12-12-12-12-12-12-12--|
"Lay your love on the fire, when you come on in,"
 
 
E--------------------------------------|
B--------------------------------------|
G---------------------7-7-7-x-5-5h7-7--|
D-7-7-7-7-10-10-10-10-0-0-0-0-0-0-0-0--|
A-7-7-7-7-10-10-10-10-0-0-0-0-0-0-0-0--|
D-7-7-7-7-10-10-10-10-0-0-0-0-0-0-0-0--|
"I got my hee-beeejeebies in a little bag"


E----------------------------------------------|
B----------------------------------------------|
G----------------------------------------------|
D-7-7-7-7-10-10-10-10-12-12-12-12-12-12-12-12--|
A-7-7-7-7-10-10-10-10-12-12-12-12-12-12-12-12--|
D-7-7-7-7-10-10-10-10-12-12-12-12-12-12-12-12--|
"Tell me what you desire,and we'll bag it up."


Post Chorus
E-----------------------------------------------------|
B-----------------------------------------------------|
G-----------------------------------------------------|
D-8-8-8-8-7-7-7-7-6-6-6-6-5-5-5-5-4-4-4-4-3-3-3-3-2~--|
A-8-8-8-8-7-7-7-7-6-6-6-6-5-5-5-5-4-4-4-4-3-3-3-3-2~--|
D-8-8-8-8-7-7-7-7-6-6-6-6-5-5-5-5-4-4-4-4-3-3-3-3-2~--|
 "aiiiii, aiiiii, aiiiii, aiiiii, aiiiii, aiiiii, aiiiii"


(Fill3 - before The main riff starts again)
E--------------------------|
B--------------------------|
G-(7)-(7)-(7)-(7)-(7)-(7)--|
D-(0)-(0)-(0)-(0)-(0)-(0)--|
A-(0)-(0)-(0)-(0)-(0)-(0)--|
D-(0)-(0)-(0)-(0)-(0)-(0)--|


Main Riff/Intro 
Fill1
Pre-Chorus
Chorus
Post-Chorus


E--------------------------|
B--------------------------|
G-(7)-(7)-(7)-(7)-(7)-(7)--|
D-(0)-(0)-(0)-(0)-(0)-(0)--|
A-(0)-(0)-(0)-(0)-(0)-(0)--|
D-(0)-(0)-(0)-(0)-(0)-(0)--|


Ending
E-------------------|
B-------------------|
G--5--0--5/7---7\---|
D--0--0--0/0---0\---|
A--0--0--0/0---0\---|
D--0--0--0/0---0\---|



Ending 2 
E------------------------------------13-13-13-13-13-13-13-13--|
B-------------------------------------x--x--x--x--x--x--x--x--|
G-5--0--5/7---7---7---7---7---7---7--10-10-10-10-10-10-10-10--|
D-0--0--0/0---0-0-0-0-0-0-0-0-0-0-0---0--0--0--0--0--0--0--0--|
A-0--0--0/0---0-0-0-0-0-0-0-0-0-0-0---0--0--0--0--0--0--0--0--|
D-0--0--0/0---0-0-0-0-0-0-0-0-0-0-0---0--0--0--0--0--0--0--0--|



E--------------------------11-11-11-11-11-11-11-11--|
B---------------------------x--x--x--x--x--x--x--x--|
G-7---7---7---7---7---7-7---8--8--8--8--8--8--8--8--|
D-0-0-0-0-0-0-0-0-0-0-0-0---0--0--0--0--0--0--0--0--|
A-0-0-0-0-0-0-0-0-0-0-0-0---0--0--0--0--0--0--0--0--|
D-0-0-0-0-0-0-0-0-0-0-0-0---0--0--0--0--0--0--0--0--|

End On
E----------|
B----------|
G--7~~~----|
D--0~~~----|
A--0~~~----|
D--0~~~----|


so thats pritty much it. 
your just gonna have to figure the song order 
which shouldn be to difficult.

Rate and/or Comment 
            
Hard to play? Try these video lessons and learn fast. | Correct




comments powered by Disqus
↑ Back to top | Tablatures and chords are parodies/interpretations of the original songs. You may use it for private study, scholarship, research or language learning purposes only