» » »

Oasis, All Around The World Bass tabs (ver.2)

Artists:  A B C D E F G H I J K L M N O P Q R S T U V W X Y Z # 

All Around The World Bass tabs (ver.2)

Oasis Tabs
 Rating:
4.3/5 (6 votes)
All Around The World lessons Tabs too difficult? Try these video lessons and learn fast
                All Around The World- Written By Noel Gallagher


Intro
G----------------------------------------
D----------------------------------------
A----------------------------------------
E---7------7--2-------2--0-----4---2-----

G---------------------------------------------------------
D---------------------------------------------------------
A----------9---11---9-----11----9------------------11--9--
E--7---11---------------------------11---12---------------

Verse's
G----------------------------------------
D----------------------------------------
A----------------------------------------
E---7------7--2-------2--0-----4---2-----

Pre-Chorus
G----------------------------------------
D----------------------------------------
A----------------------------------------
E---4-4-4-4-4-4-4-4-----0-0-0-0-0-0-0-0--

G----------------------------------------
D----------------------------------------
A----------------------------------------
E---4-4-4-4-4-4-4-4-----2-2-2-2-2-2-2-2--

G----------------------------------------
D----------------------------------------
A----------------------------------------
E---3-3-3-3-3-3-3-3-----7-7-7-7-7-7-7-7--

G----------------------------------------
D----------------------------------------
A----------------------------------------
E---0-0-0-0-0-0-0-0------------2-2--1-0--

Chorus
G----------------------------------------
D----------------------------------------
A----------------------------------------
E-----7--7--7-7-7-7-7---9--9--9-9-9-9-9--

G----------------------------------------
D----------------------------------------
A-----7--7--7-7-7-7-7--------------------
E-----------------------7--7--7-7-7-7-7--
Play First Time Around
G----------------------------------------
D----------------------------------------
A----------------------------------------
E-----7--7--7----5--5-6------------------

Bridge 1 - before 1st chord change
G----------------------------------------
D----------------------------------------
A----------------------------------------
E----7----0-------7------0---------------

G----------------------------------------
D----------------------------------------
A----------------------------------------
E----3-3-3-3-3-------0-0-0-0------------- play a few times

Chorus-2
G----------------------------------------
D----------------------------------------
A---3--3--3-3-3-3-3-----5--5--5-5-5-5----
E----------------------------------------

G----------------------------------------
D---3--3--3-3-3-3-3----------------------
A-----------------------3--3--3-3-3-3----
E----------------------------------------

Bridge-2 - before 2nd chord change
G----------------------------------------
D----------------------------------------
A----------------------------------------
E----5-5-5-5-5-5-5-5----3-3-3-3-3-3-3-3-- reapeat until

Chorus-3
G----------------------------------------
D----------------------------------------
A---5--5--5-5-5-5-5-----7--7--7-7-7-7----
E----------------------------------------

G----------------------------------------
D---5--5--5-5-5-5-5----------------------
A-----------------------5--5--5-5-5-5----
E---------------------------------------- reapeat many times


On Live Performances while Noel is soloing you play this 
G----------------------------------------
D-----------------7--9--7----------------
A---5---7slide9-------------9---7----5---
E----------------------------------------

Last Time You Play it Play this
G------------------------------7---------
D-----------------7--9--7--9-------------
A---5---7slide9--------------------------
E----------------------------------------

I think this is all right... have fun
Thank you.
            
Submit corrections

comments powered by Disqus
↑ Back to top | Oasis Bass for All Around The World. Lyrics for acoustic guitar and electric guitar. Tablatures and chords are parodies/interpretations of the original songs. You may use it for private study, scholarship, research or language learning purposes only