» » »

Oasis, All Around The World Bass tabs (ver.1)

Artists:  A B C D E F G H I J K L M N O P Q R S T U V W X Y Z # 

All Around The World Bass tabs (ver.1)

Oasis Tabs
Rating:
4/5 (2 votes)
All Around The World lessons Tabs too difficult? Try these video lessons and learn fast
                This is my favourite Oasis song.

/slide
*let ring out

Intro
G----------------------------------------|
D----------------------------------------|
A---2------2-----------------------------|
E-------------2-------2--0-----4---2-----|

G---------------------------------------------------------|
D----------4----6---4-----6-----4-------------------6--4--|
A--2----6----------------------------6----7---------------|
E---------------------------------------------------------|

Verse 1

G|-------------------------------------| x4
D|-------------------------------------|
A|--2-2-2-2----------------------------|
E|----------2-2-2-2-0-0-0-0-4-4-2-2----|

Bridge 1

G|------------------------------------------------------------------|
D|------------------------------------------------------------------|
A|--4-4-4-4-4-4-4-4-------------------------2-2-2-2-----------------|
E|------------------4-4-4-4-2-2-2-2-3-3-3-3---------0-0-0-0-2-1-0---|

Chorus 1

G|--------------------------------------------------------------------|
D|--------------------------------------------------------------------|
A|--2-2-2-2-2-2-2-2-4-4-4-4-4-4-4-4-7-7-7-7-7-7-7-7/2-2-2-2-2-2-2-2-2-|
E|--------------------------------------------------------------------|

G|---------------------------------------------------------------------|
D|---------------------------------------------------------------------|
A|--2-2-2-2-2-2-2-4-4-4-4-4-4-4-4-7-7-7-7-7-7-7-7/2-2-2-2-2-2-2-2------|
E|---------------------------------------------------------------------|

Verse 1 x2
Bridge  x1
Chorus  x1

Na na na na...

G|---------------------------------------------------------|
D|---------------------------------------------------------|
A|--2*---4*---7*---2*---2*---4*---7*---2--0--2--0--2--0----|
E|---------------------------------------------------------|

G|----------------------------------------------------------------|
D|----------------------------------------------------------------|
A|----------------------------------------------------------------|
E|--3---3---1---0---3---3---1---0---3---3---1---0---3--3--3--3----|

Key Change
Chorus 2

G|----------------------------------------------------------------------| x3
D|----------------------------------------------------------------------|
A|--3-3-3-3-3-3-3-3-5-5-5-5-5-5-5-5-8-8-8-8-8-8-8-8/3-3-3-3-3-3-3-3-3-3-|
E|----------------------------------------------------------------------|

G|---------------------------------------------------------------|
D|---------------------------------------------------------------|
A|3-3-3-3-3-3-5-5-5-5-5-5-5-5-8-8-8-8-8-8-8-8/3-3-3-3-3-3-3-3----|
E|---------------------------------------------------------------|

It's Gonna Be OK

G|--------------------------------------|
D|--------------------------------------|
A|--10--9--0--10--9--0--10--9--0--0*----|
E|--------------------------------------|

Key Change 2
Chorus 3

G|-------------------------------------------------------------------------|
D|-------------------------------------------------------------------------|
A|--5-5-5-5-5-5-5-5-7-7-7-7-7-7-7-7-10-10-10-10-10-10-10-10/5-5-5-5-5-5-5-5|
E|-------------------------------------------------------------------------|

La la la la la la.....
G|------------------------------------------------------------------------|
D|------------------------------------------------------------------------|
A|-5-5-5-5-5-5-5-5-7-7-7-7-7-7-7-7-10-10-10-10-10-10-10-10/5-5-5-5-5-5-5-5|
E|------------------------------------------------------------------------|


Repeat until the end.
            

comments powered by Disqus
↑ Back to top | Oasis Bass for All Around The World. Lyrics for acoustic guitar and electric guitar. Tablatures and chords are parodies/interpretations of the original songs. You may use it for private study, scholarship, research or language learning purposes only