» » »

O.A.R., Toy Store Tabs (ver.1)

Artists:  A B C D E F G H I J K L M N O P Q R S T U V W X Y Z # 

Toy Store Tabs (ver.1)

O.A.R. Tabs
Rating:
0/5 (0 votes)
Toy Store lessons Tabs too difficult? Try these video lessons and learn fast
                
this song is so awesome and it is my favorite, for some reason
no one has toabbed it yet so i guess that i will have to tab 
myself.

verse 

e------------x-----------x-------x-------|
B------------x-----------x-------x-------|
G--9-x-9-x-9-x-7-x-7-x-7-x-6-6-6-x-8-8-8-|   x4
D--9-x-9-x-9-x-7-x-7-x-7-x-7-7-7-x-9-9-9-|
A--7-x-7-x-7-x-5-x-5-x-5-x-7-7-7-x-9-9-9-|
E------------x-----------x-5-5-5-x-7-7-7-|


chorus

e--------------------x-----------x-----------x-----------|
B--------------------x-5-5-5-5-5-x-----------x-----------|
G--9-x-9-x-9-x-9-x-9-x-6-6-6-6-6-x-6-6-6-6-6-x-8-8-8-8-8-|
D--9-x-9-x-9-x-9-x-9-x-6-6-6-6-6-x-7-7-7-7-7-x-9-9-9-9-9-|
A--7-x-7-x-7-x-7-x-7-x-4-4-4-4-4-x-7-7-7-7-7-x-9-9-9-9-9-|
E--------------------x-----------x-5-5-5-5-5-x-7-7-7-7-7-|

all verses are the same

verse
chorus
verse
chorus
chorus
verse
chorus 
chorus
outro-same as chorus

Lyrics

verse 1
hoping to find something better, 
atleast better that what you thought.
so many isles to venture down,
so many choices you thought.
well the man he come walking down the isle,
with a smile that's wondering.
but mom she gotta go away again,
running with the pain, yeadadadadada.....

chorus
you ask yourself why you can't stay just 5 more 
minutes alone, and walk away, i said you know
it mom knows it so what you want she says, 
one toy today she says.

verse 2
why only one or another, or none at all.
how come everytime i trip, i never fall.
well then a man he come walking down the isle,
with a smile that's widening, but mom
she gotta go away again, and i'm running 
with the pain, yeadadadadada........

chorus x2

verse 3
so many isles ive wandered down and there's
nothing looking nice, how come everytime i 
look once, i have to look twice, but mom 
she's coming round the bend, and i'm buying
another toy, she said son just come along
with me, but i'm running with the boys, 
yeadadadadada.......

chorus x2

outro
shopping at the toy store......, so many
toys like, the sad day before......, at the 
toy store......, but moms gotta go away.....

enjoy! and this is just the rythym guitar, and i
don't know the lead, if someone else does, 
            
Submit corrections

comments powered by Disqus
↑ Back to top | O.A.R. Tabs for Toy Store. Lyrics for acoustic guitar and electric guitar. Tablatures and chords are parodies/interpretations of the original songs. You may use it for private study, scholarship, research or language learning purposes only