» » »

Toy Store Tabs (ver.2)

Artists:  A B C D E F G H I J K L M N O P Q R S T U V W X Y Z # 

Toy Store Tabs (ver.2)

O.A.R.
Rating:
0/5 (0 votes)

Hard to play? Try these video lessons and learn fast.
                (Intro)
E|--12-12----12-12-----12-------12-------------14----14/12----12--12-12-11-9
B|------------------10----10--9----9/10--10/12----12-------12---------------
G|--------------------------------------------------------------------------
D|--------------------------------------------------------------------------
A|--------------------------------------------------------------------------
E|--------------------------------------------------------------------------


E|--12-11-9-7---------------------------------------------------------------
B|------------10-9-7-5--7^7^7^--5-5--0---5-7^7^7^7^--7-7--5-5h7h5-0---5-7---
G|-------------------------------------6----------------------------6-------
D|--------------------------------------------------------------------------
A|--------------------------------------------------------------------------
E|--------------------------------------------------------------------------


E|--4-5-4-5/7-7-7/9---14-14-14-14-14-14-14/12-12-12---12---12---12-12-12----
B|--------------------------------------------------------------------------
G|--------------------------------------------------------------------------
D|--------------------------------------------------------------------------
A|--------------------------------------------------------------------------
E|--------------------------------------------------------------------------


E|--12-12-12/11-11-11/9-9-9-7-----------------------------------4-5--5/7----
B|----------------------------10-10/9-7-5---0---5-7^7^7^-5--5-7-------------
G|----------------------------------------6---6-----------------------------
D|--------------------------------------------------------------------------
A|--------------------------------------------------------------------------
E|--------------------------------------------------------------------------
            
Hard to play? Try these video lessons and learn fast. | Correct




comments powered by Disqus
↑ Back to top | Tablatures and chords are parodies/interpretations of the original songs. You may use it for private study, scholarship, research or language learning purposes only