» » »

Crazy Game Of Poker Tabs (ver.2)

Artists:  A B C D E F G H I J K L M N O P Q R S T U V W X Y Z # 

Crazy Game Of Poker Tabs (ver.2)

O.A.R.
Rating:
0/5 (0 votes)

Hard to play? Try these video lessons and learn fast.
                stantard tuning
^=bend
/=slide
~=viabrate
intro:
     
----10^-10^-10^--8-8-5-5------------------------------------------------------------------
----11^-11^-11^--8-8-5-5-----------------------------------------------------------5-6-6-8
--------------------------7^-5-------5------5-7-8-7-5-7-5-------------5-7^-5-5-7-5--------
-------------------------------5-7-----5-7-----------------------5-7----------------------
----------------------------------------------------------5-6-7---------------------------
------------------------------------------------------------------------------------------



----------------------------------------------------------10-8-8--8-10-8---8-7-8-10-8~----
-/-10-8-6-5---------------------------------5-7-8-----------------------------------------
--------------------------------------5-7-------------------------------------------------
-------------------------------5-7-9------------------------------------------------------
------------------------5-7-8-------------------------------------------------------------
-----------------5-7-8--------------------------------------------------------------------

That's when the intro stops and the vocals start.


"O My"..... 
C  G  Amin  F     (play these chords through the rest of the whole song.
Listen to the song to get the rythem changes.)

At the end and in the middle of each verse play
--0---------------------
--0--------1---1---1---1
--0--------2---2---2---2----x2
--0--------2---2---2---2
-----------0---0---0---0
------------------------



Well that's it, it's a pretty easy song once you get the rythem down. That was
my first tab ever but I am almost positive that it's 100% correct. If you have
            
Hard to play? Try these video lessons and learn fast. | Correct




comments powered by Disqus
↑ Back to top | Tablatures and chords are parodies/interpretations of the original songs. You may use it for private study, scholarship, research or language learning purposes only