» » »

Crazy Game Of Poker Tabs (ver.1)

Artists:  A B C D E F G H I J K L M N O P Q R S T U V W X Y Z # 

Crazy Game Of Poker Tabs (ver.1)

O.A.R.
Rating:
0/5 (0 votes)

Hard to play? Try these video lessons and learn fast.
                O.A.R. - Crazy Game of Poker
This is a great song with a whole lot of solos in it. It took a while to do this
and I think this is about as close as you can get to the real thing.


e--10-10-12-8-X-8-5-5--------------------------------
B--8--8-----8-X-8-5-5--------------------------------
G----------------------7b-5-----5-----5-7-7b-7-5h7p5-
D---------------------------5h7---5h7----------------
A----------------------------------------------------
E----------------------------------------------------


e----------------------------------------------------
B--------------------------5-6-6-8-8/10-8-6-5--------
G------------5-7b-5-5h7p5----------------------------
D------5-5h7-----------------------------------------
A--5h7-----------------------------------------------
E----------------------------------------------------


e----------------------0-1-3-3-----------------------
B----------------0-1-3-------------------------------
G------------0-2-------------------------------------
D------0-2-3-----------------------------------------
A--2-3-----------------------------------------------
E----------------------------------------------------


e--10b-8-8-8-10-10-8-7-8-8/10-8----------------------

Chords for entire song:

C	G	Am	F
e-0	e-3	e-0	e-1
B-1	B-3	B-1	B-1
G-0	G-0	G-2	G-2
D-2	D-0	D-2	D-3
A-3	A-2	A-0	A-0
E-0	E-3	E-0	E-0

Bridge hammered on with Am


Solo 1

e--8---8-10-10-10-/12-8-8----------------------------
B----8-8-8--8--8------8-8----------------------------
G---------------------------7b-5-----5-7b-5----------
D--------------------------------5h7-----------------
A----------------------------------------------------
E----------------------------------------------------


e--8-5-----------------------------------------------
B------8-5-------------------------------------------
G----------7-5-5h7-5-----5-7-7b-7-7-5-7--------------
D--------------------5h7-----------------------------
A----------------------------------------------------
E----------------------------------------------------


e------------------3---8-8---8-8---10-10-10-8--------
B------------0-1-3---3-8-8-8-----8-8--8--8--8--------
G--------0-2-----------------------------------------
D--0-2-3---------------------------------------------
A----------------------------------------------------
E----------------------------------------------------


e--12----12----13-12-15-13-12-10-8-7-8---------------
B-----12----12---------------------------------------
G----------------------------------------------------
D----------------------------------------------------
A----------------------------------------------------
E----------------------------------------------------


Solo 2

e----------------------------------------------------
B--------------0-1--3--3-3/5-3-1-0-------------------
G----------0-2---------------------------------------
D----0-2-3-------------------------------------------
A--3-------------------------------------------------
E----------------------------------------------------


e----------------------------------------------------
B--3-1-1-0-------------------------------------------
G----------2-0---------------------------------------
D--------------3-2-3~-2~-----------------------------
A----------------------------------------------------
E----------------------------------------------------


e--10-10-10-8-10-8--8-10-8-5-------------------------
B--8--8--8--8-8--8--8-8--8-5-------------------------
G----------------------------7-5-----5---------------
D--------------------------------5h7-----------------
A----------------------------------------------------
E----------------------------------------------------


e----------------------------------------------------
B----------------------------------------------------
G--5-55------5-77~-7-7/9-7-5-/12---------------------
D--5-55--5h7-----------------------------------------
A----------------------------------------------------
E----------------------------------------------------


Solo 3

e--8-8-8-8-10-8--8-10-8-7~--7-7-7-7-7/8-7-5----------
B--8-8-8-8-8--8--8-8--8---------------------8--------
G----------------------------------------------------
D----------------------------------------------------
A----------------------------------------------------
E----------------------------------------------------


e----------0-1-3-5-7-8-8/10-8------------------------
B----0-1-3-------------------------------------------
G--2-------------------------------------------------
D----------------------------------------------------
A----------------------------------------------------
E----------------------------------------------------


e--15----15----15-15-13-12-10-10-8-8/12-12-10-8---8-8---8-10-10-10-12-8--
B-----15----15----15----------------------------8-----8-8-8--8--8-----8--
G------------------------------------------------------------------------
D------------------------------------------------------------------------
A------------------------------------------------------------------------
E------------------------------------------------------------------------


Solo 4

e----------------------------------------------------
B----------------------------------------------------
G----------5-7-7-55-7-5-7-7-5-7-7b--8-7-5-7-5--------
D------5-7------------5-5-5-5-5-5b--5-5-5-5-5-7-5----
A--5-7----------------------------------------5------
E----------------------------------------------------


e-------------------------8-8-8-10-8-88-10-8-8-8-5-5-
B----------------55b6-5-5-8-8-8-8--8-88-8--8-8-8-5-5-
G----------5-5h7-------------------------------------
D------5h7-------------------------------------------
A--5h7-----------------------------------------------
E----------------------------------------------------


e-----------------------------------------8-8-8-8-8-8-8-8-8-8-8-8-8/10p8-5-
B---------------------------------5-5h8p5/8-8------------------------------
G--7p5--------5-5-----55--5b-55-7-5-5--------------------------------------
D------55-5h7---5-5h7-55--5b-55-5------------------------------------------
A--------------------------------------------------------------------------
E--------------------------------------------------------------------------


e----------------------------------
B----------------------------------
G--7p5-----5-7-5-----5-7-7/8b-7-5-5
D------5h7-------5h7---------------
A----------------------------------
E----------------------------------


e----------------------------------------------------------------------------
B-----------------------------------------8b-6-5-5/6/5-----------------------
G----------5h7-7b-5-----5-5-7b-5-7-7-7-7---------------7-5-4-5-7-5-----5-7b5-
D------5h7----------7-5--------------------------------------------5-7-------
A--5h7-----------------------------------------------------------------------
E----------------------------------------------------------------------------


For all of you O.A.R. fans out there, I hope this tab meets your expectations.
            
Hard to play? Try these video lessons and learn fast. | Correct




comments powered by Disqus
↑ Back to top | Tablatures and chords are parodies/interpretations of the original songs. You may use it for private study, scholarship, research or language learning purposes only