» » »

Smokewood Tabs (ver.3)

Artists:  A B C D E F G H I J K L M N O P Q R S T U V W X Y Z # 

Smokewood Tabs (ver.3)

Nullset
Rating:
0/5 (0 votes)

Hard to play? Try these video lessons and learn fast.
                Words and music written by: Ken Smith, Jim Foster, Chris Fitzgerald, Jim Shippy, Mick Palmesano

I learned this song one day when I got home from a nullset consert.  I was just fooling around and I learned it in a funky tuning.  Once you learn it this way it is easy to change the tuning and re transpose it

Dropped-C
Low to high C A D G B E

Intro (same as Pre-Chorus)

E------------------------------------------------------------------------------------
B------------------------------------------------------------------------------------
G------------------------------------------------------------------------------------
D------------------5---------------5-----------------5---------------5---------------
A---------3-3----------4----3--------4-----3-3---------4---3h4----4------------------
C---------0-0---------------0--------------0-0---------------------------------------


Pre-verse
                    P.M.                                                   P.M.
E------------------------------------------------------------------------------------
B------------------------------------------------------------------------------------
G------------------------------------------------------------------------------------
D---------------------5--------------------5---------------------5--------5--------5-
A----------3---------------4------3-----------4p3----3-------------3h4------3h4------
C--------------0--------------------------------------------0------------------------


Verse  This one contiunes with differnt varations of the same notes and the pre-verse just jam along
              P.M.                                               P.M.
E------------------------------------------------------------------------------------
B------------------------------------------------------------------------------------
G------------------------------------------------------------------------------------
D----------------5-------------5----------------------5----------------5-------------
A------3-------------4---3----------4p3----3--------------4---3------------4p3-------
C----------0---------------------------------------0---------------------------------

Chorus

E------------------------------------------------------------------------------------
B------------------------------------------------------------------------------------
G------------------------------------------------------------------------------------
D--------5555555555555555---0---3333333333333333-------------------------------------
A--------3333333333333333---0---3333333333333333-------------------------------------
C------------------------------------------------------------------------------------

I'ts an easy song if you don't have the CD I suggest you buy it
            
Hard to play? Try these video lessons and learn fast. | Correct




comments powered by Disqus
↑ Back to top | Tablatures and chords are parodies/interpretations of the original songs. You may use it for private study, scholarship, research or language learning purposes only