» » »

Nullset, Smokewood Tabs (ver.1)

Artists:  A B C D E F G H I J K L M N O P Q R S T U V W X Y Z # 

Smokewood Tabs (ver.1)

Nullset Tabs
 Rating:
4/5 (4 votes)
Smokewood lessons Tabs too difficult? Try these video lessons and learn fast
1
                
TUNING: CGCFAD

An awesome song and really easy to play too! This is the way my band plays it. 
Great for beginners.


NOTE: v = vibrato          (If unfamiliar to any of these techniques
      h = hammer on         then please read the note at the bottom
      p = pull off          of this tab.)


============================================================================

INTRO

D|--------------------------------------------|
A|--------------------------------------------|
F|--------------------------------------------|
C|----0-0--7-----0--7----0-0--7--------7------| x4
G|----0-0----6v--0----6--0-0----6v-5h6---6----|
C|----0-0--------0-------0-0------------------|


VERSE ONE

D|------------------------------------------------------|
A|------------------------------------------------------|
F|------------------------------------------------------|
C|----------7--------7------------7--------7------------|
G|----5--------6--5----6p5--5--------6--5----6p5--------|
C|-------0---------------------0------------------------|

D|------------------------------------------------------|
A|------------------------------------------------------|
F|------------------------------------------------------|
C|----------7--------7------------7------7-----7--------|
G|----5--------6--5----6p5--5--------5h6---5h6----------|
C|-------0---------------------0------------------------|

D|------------------------------------------------------|
A|------------------------------------------------------|
F|------------------------------------------------------|
C|----------7--------7------------7--------7------------|
G|----5--------6--5----6p5--5--------6--5----6p5--------|
C|-------0---------------------0------------------------|

D|------------------------------------------------------|
A|------------------------------------------------------|
F|------------------------------------------------------|
C|----------7--------7------------7------7-----7--------|
G|----5--------6--5----6p5--5--------5h6---5h6----------|
C|-------0---------------------0------------------------|

D|------------------------------------------------------|
A|------------------------------------------------------|
F|------------------------------------------------------|
C|----------7--------7------------7--------7------------|
G|----5--------6--5----6p5--5--------6--5----6p5--------|
C|-------0---------------------0------------------------|

D|------------------------------------------------------|
A|------------------------------------------------------|
F|------------------------------------------------------|
C|----------7--------7------------7---------------------|
G|----5--------6--5----6p5--5---------------------------|
C|-------0---------------------0------------------------|

D|--------------------------------|
A|--------------------------------|
F|--------------------------------|
C|----------7----------------7----| x7
G|----5-------6p5---5----5h6------|
C|-------0------------0-----------|

D|--------------------------------|
A|--------------------------------|
F|--------------------------------|
C|----------7---------------------| x1
G|----5-------6p5-----------------|
C|-------0------------------------|


BRIDGE

D|--------------------------------------------|
A|--------------------------------------------|
F|--------------------------------------------|
C|----0-0--7-----0--7----0-0--7--------7------| x2
G|----0-0----6v--0----6--0-0----6v-5h6---6----|
C|----0-0--------0-------0-0------------------|


CHORUS

D|-----------------------------------------------------------------------|
A|-----------------------------------------------------------------------|
F|-----------------------------------------------------------------------|
C|----7-7-7-7-7-7-7-7-7-7-7-7-7-7-7-6-5-5-5-5-5-5-5-5-5-5-5-5-5-5-5-6----|
G|----5-5-5-5-5-5-5-5-5-5-5-5-5-5-5-6-5-5-5-5-5-5-5-5-5-5-5-5-5-5-5-6----|
C|----0-0-0-0-0-0-0-0-0-0-0-0-0-0-0-6-5-5-5-5-5-5-5-5-5-5-5-5-5-5-5-6----|

D|-----------------------------------------------------------------------|
A|-----------------------------------------------------------------------|
F|-----------------------------------------------------------------------|
C|----7-7-7-7-7-7-7-7-7-7-7-7-7-7-7-6-5-5-5-5-5-5-5-5-5-5-5-5-5-5-5-6----|
G|----5-5-5-5-5-5-5-5-5-5-5-5-5-5-5-6-5-5-5-5-5-5-5-5-5-5-5-5-5-5-5-6----|
C|----0-0-0-0-0-0-0-0-0-0-0-0-0-0-0-6-5-5-5-5-5-5-5-5-5-5-5-5-5-5-5-6----|


VERSE TWO

D|------------------------------------------------------|
A|------------------------------------------------------|
F|------------------------------------------------------|
C|----------7--------7------------7------7-----7--------|
G|----5--------6--5----6p5--5--------5h6---5h6----------|
C|-------0---------------------0------------------------|

D|------------------------------------------------------|
A|------------------------------------------------------|
F|------------------------------------------------------|
C|----------7--------7------------7--------7------------|
G|----5--------6--5----6p5--5--------6--5----6p5--------|
C|-------0---------------------0------------------------|

D|------------------------------------------------------|
A|------------------------------------------------------|
F|------------------------------------------------------|
C|----------7--------7------------7------7-----7--------|
G|----5--------6--5----6p5--5--------5h6---5h6----------|
C|-------0---------------------0------------------------|

D|------------------------------------------------------|
A|------------------------------------------------------|
F|------------------------------------------------------|
C|----------7--------7------------7--------7------------|
G|----5--------6--5----6p5--5--------6--5----6p5--------|
C|-------0---------------------0------------------------|

D|------------------------------------------------------|
A|------------------------------------------------------|
F|------------------------------------------------------|
C|----------7--------7------------7---------------------|
G|----5--------6--5----6p5--5---------------------------|
C|-------0---------------------0------------------------|

D|--------------------------------|
A|--------------------------------|
F|--------------------------------|
C|----------7----------------7----| x7
G|----5-------6p5---5----5h6------|
C|-------0------------0-----------|

D|--------------------------------|
A|--------------------------------|
F|--------------------------------|
C|----------7---------------------| x1
G|----5-------6p5-----------------|
C|-------0------------------------|


BRIDGE

D|--------------------------------------------|
A|--------------------------------------------|
F|--------------------------------------------|
C|----0-0--7-----0--7----0-0--7--------7------| x2
G|----0-0----6v--0----6--0-0----6v-5h6---6----|
C|----0-0--------0-------0-0------------------|


CHORUS

D|-----------------------------------------------------------------------|
A|-----------------------------------------------------------------------|
F|-----------------------------------------------------------------------|
C|----7-7-7-7-7-7-7-7-7-7-7-7-7-7-7-6-5-5-5-5-5-5-5-5-5-5-5-5-5-5-5-6----|
G|----5-5-5-5-5-5-5-5-5-5-5-5-5-5-5-6-5-5-5-5-5-5-5-5-5-5-5-5-5-5-5-6----|
C|----0-0-0-0-0-0-0-0-0-0-0-0-0-0-0-6-5-5-5-5-5-5-5-5-5-5-5-5-5-5-5-6----|

D|-----------------------------------------------------------------------|
A|-----------------------------------------------------------------------|
F|-----------------------------------------------------------------------|
C|----7-7-7-7-7-7-7-7-7-7-7-7-7-7-7-6-5-5-5-5-5-5-5-5-5-5-5-5-5-5-5-6----|
G|----5-5-5-5-5-5-5-5-5-5-5-5-5-5-5-6-5-5-5-5-5-5-5-5-5-5-5-5-5-5-5-6----|
C|----0-0-0-0-0-0-0-0-0-0-0-0-0-0-0-6-5-5-5-5-5-5-5-5-5-5-5-5-5-5-5-6----|


FINAL BRIDGE

D|------------------------------------------------------|
A|------------------------------------------------------|
F|------------------------------------------------------|
C|----------7--------7------------7------7-----7--------|
G|----5--------6--5----6p5--5--------5h6---5h6----------|
C|-------0---------------------0------------------------|

D|--------------------------------------------|
A|--------------------------------------------|
F|--------------------------------------------|
C|----0-0--7-----0--7----0-0--7--------7------| x4
G|----0-0----6v--0----6--0-0----6v-5h6---6----|
C|----0-0--------0-------0-0------------------|


CHORUS

D|-----------------------------------------------------------------------|
A|-----------------------------------------------------------------------|
F|-----------------------------------------------------------------------|
C|----7-7-7-7-7-7-7-7-7-7-7-7-7-7-7-6-5-5-5-5-5-5-5-5-5-5-5-5-5-5-5-6----|
G|----5-5-5-5-5-5-5-5-5-5-5-5-5-5-5-6-5-5-5-5-5-5-5-5-5-5-5-5-5-5-5-6----|
C|----0-0-0-0-0-0-0-0-0-0-0-0-0-0-0-6-5-5-5-5-5-5-5-5-5-5-5-5-5-5-5-6----|

D|-----------------------------------------------------------------------|
A|-----------------------------------------------------------------------|
F|-----------------------------------------------------------------------|
C|--7-7-7-7-7-7-7-7-7-7-7-7-7-7-7-6-5-5-5-5-5-5-5-5-8-8-8-8-10-10-11-11--|
G|--5-5-5-5-5-5-5-5-5-5-5-5-5-5-5-6-5-5-5-5-5-5-5-5-8-8-8-8-10-10-11-11--|
C|--0-0-0-0-0-0-0-0-0-0-0-0-0-0-0-6-5-5-5-5-5-5-5-5-8-8-8-8-10-10-11-11--|


OUTRO

D|------------------------------------------------------|
A|------------------------------------------------------|
F|------------------------------------------------------|
C|----7--0--7--------7------7--0--7--------7------------|
G|----5--0-----6--5----6p5--5--0-----6--5----6p5--------|
C|-------0---------------------0------------------------|

D|------------------------------------------------------|
A|------------------------------------------------------|
F|------------------------------------------------------|
C|----7--0--7--------7------7--0--7------7-----7--------|
G|----5--0-----6--5----6p5--5--0-----5h6---5h6----------|
C|-------0---------------------0------------------------|

D|------------------------------------------------------|
A|------------------------------------------------------|
F|------------------------------------------------------|
C|----7--0--7--------7------7--0--7--------7------------|
G|----5--0-----6--5----6p5--5--0-----6--5----6p5--------|
C|-------0---------------------0------------------------|

D|-------------------------------------------------------------|
A|-------------------------------------------------------------|
F|-------------------------------------------------------------|
C|----7--0--7--------7------7--0--7------7-----7--0------------|
G|----5--0-----6--5----6p5--5--0-----5h6---5h6----0------------|
C|-------0---------------------0------------------0------------|


There you have it. If you have any questions regarding my tabs then feel
Thanks folks.

============================================================================

NOTE ON GUITAR PLAYING TECHNIQUES:

Hammer On: Sharply bring a fretting finger down on the fingerboard,
           causing a note to sound without the need to strum the string.
           This technique is the opposite of the pull off.

 Pull Off: On a string which is already vibrating, lift off the fretting
           finger (exposing the string either as open or as stopped by
           another fretting finger lower on the same string). This will
           make the note playing on the string change without the need to
           strum the string. This is the opposite of the hammer on.

  Vibrato: 'Wobble' the fretting finger parallel to the neck of the guitar
           to create minor changes of pitch. To achieve a larger range of
           pitch, the string can be bent perpendicular to the neck of the
           guitar (i.e. towards the strings either side of the string being
           used). This is often cited as a separate technique called
           'bending' and is noted on guitar tabs with a 'b'.
            
Submit corrections

comments powered by Disqus
↑ Back to top | Nullset Tabs for Smokewood. Lyrics for acoustic guitar and electric guitar. 1 Tablatures and chords are parodies/interpretations of the original songs. You may use it for private study, scholarship, research or language learning purposes only