>
 >
Fred Bear

Fred Bear Guitar Tabs

Nugent Ted - Fred Bear chords, tabs, tablatures, lyrics

Guitar lessons | Add/correct | Request | Top 50 tabs Artists:  A B C D E F G H I J K L M N O P Q R S T U V W X Y Z 0-9

Fred Bear Guitar Tabs – Nugent Ted

CD, Sheet music, Poster

Do you like Fred Bear? Share with your friends now
Bass TabsChordsTabsTabs v2
I listened to this tune and figured it all out by ear, let me know what you think?
In the future I will post more tabs I learn by ear, or just plain accuire over
time.  Enjoy!!!

Riff 1A-(Intro)
                                   PM---------->|
|-------------------------------------------|
|------0-1-3-----1-3-0--0-0-1-3-3-1-0-------|
|*--2----------2---------------------------*|
|*--2----------2---------------------------*|
|-------------------------------------------|
|-------------------------------------------|

Riff 1B-(Post Intro)
           PM          PM                  PM         PM       PM--------->|
|--------------------------------------------------------------------------|
|---1--1-1--1--1-1--3-0--1--1-1--1--1-1--3-0--0-0-0-0-0-0-0--0-0-1-3-3-1-0-|
|*------------------------------------------------------------------------*|
|*------------------------------------------------------------------------*|
|--------------------------------------------------------------------------|
|--------------------------------------------------------------------------|

Riff 2- (Verse)
   PM--------------------------------------------------------------------->|
|--------------------------------------------------------------------------|
|--------------------------------------------------------------------------|
|*------------------------------------------------------------------------*|
|*------------------------------------------------------------------------*|
|--7-7-7-7-7-7-7-7---3-3-3-3-3-3-3-3---5-5-5-5-5-5-5-5---5-5-5-5-5-5-5-5---|
|--5-5-5-5-5-5-5-5---1-1-1-1-1-1-1-1---3-3-3-3-3-3-3-3---3-3-3-3-3-3-3-3---|

Riff 3- (Chorus)

|---------------------------------------------------------------------------|
|---------------------------------------------------------------------------|
|*--------------------------------------------------------------------------|
|*-7--7-7-7-7-7-7-7---3--3-3-3-3-3-3-3---5--5-5-5-5-5-5-5---5-5-5-5-5-5-5-5-|
|--7--7-7-7-7-7-7-7---3--3-3-3-3-3-3-3---5--5-5-5-5-5-5-5---5-5-5-5-5-5-5-5-|
|--5--5-5-5-5-5-5-5---1--1-1-1-1-1-1-1---3--3-3-3-3-3-3-3---3-3-3-3-3-3-3-3-|

Riff 4

|--------------------------------------------------|
|----1--1-1---1--1-1--1-1---3--3-3---3--3-3--3-3---|
|*------------------------------------------------*|
|*------------------------------------------------*|
|--------------------------------------------------|
|--------------------------------------------------|

Lyrics & How to play the song:

Riff 1A
Riff 1A
Riff 1B
Riff 1B
Riff 2
There I was back in the wild again
I felt right at home, where I belong
But I had that feeling comin over me again
Just like it happened so many times before
Riff 1B
Riff 2
The spirit of the woods is like an old good friend
It makes me feel good and warm inside
I knew his name and it was good to see him again
cause in the wind he's still alive
Riff 3-(Chorus)
Oh Fred Bear, walk with me, down those trails again
Take me back, back where I belong
Oh Fred Bear, I'm glad to have you at my side my friend
And I'll join you in the big hunt before to long, before to long
Riff 1B
Riff 2
It was kinda dark, another misty dusk
And it came from the tangle from down below
I tried to remember everything he taught me so well
I had to decide which way to go
 Riff 3-(Chorus)
Riff 1B
Riff 2
Was I alone or in a hunters dream
The moment of truth was here and now
I felt his touch I felt his guided hand
The buck was mine forevermore
Riff 3
Because of Fred Bear, I'll walk down these trails again
take me back where I belong
Fred Bear I'm glad to have you at my side my friend
And I'll join you in the big hunt before to long, before to long
Riff 1B
Riff 2
We're not alone when we're in the great outdoors
We've got his spirit we've got his soul
He will guide our steps he will guide our arrows home
The restless spirit forever roam
Riff 3-(Chorus)
Riff 4
In the wind he's still alive
In the wind I hear I hear Fred Bear

That is it sorry no solo yet, but I will work on it in the future.





Comments


Popular Nugent Ted tabs & chords
Cat Scratch Fever Bass Tabs
Fred Bear Bass Tabs
Stranglehold Bass Tabs
Fred Bear Chords
Cat Scath Fever Tabs
Snakeskin Cowboys Tabs
Snakeskin Cowboys Intro Tabs
Strangle Hold Tabs
Stranglehold 1 Tabs
Stranglehold Main Riffs Correct Tabs


Song lyrics



↑ Back to top | Tablatures and chords are parodies/interpretations of the original songs. You may use it for private study, scholarship, research or language learning purposes only
© 2014 AZChords.com Contact us | Privacy policy | DMCA | Add/correct tabs | Request tabs | Top 50 tabs