» » »

Fred Bear Bass tabs (ver.1)

Artists:  A B C D E F G H I J K L M N O P Q R S T U V W X Y Z # 

Fred Bear Bass tabs (ver.1)

Nugent Ted
Rating:
0/5 (0 votes)

Hard to play? Try these video lessons and learn fast.
                Intro               Verses                                       
G---|-----|-----|-----||---9--9--9--|--5--5--5--|--7--7--7--|-----------
D---|-----|-----|-----||*--7--7--7--|--3--3--3--|--5--5--5--|-----------
A---|-----|-----|-----||*-----------|-----------|-----------|-----------
E---|--5--|--1--|--3--||------------|-----------|-----------|-----------
                                                                        

                       Chorus                                           
G---7--7--7---||--||------------------|-----------------|---------------
D---5--5--5--*||--||*-----------------|-----------------|---------------
A------------*||--||*-----------------|-----------------|---------------
E-------------||--||---5-----5--5--5--|--1-----1--1--1--|---------------
                                                                        

                    4x                                                  
G-------------------||--------------------------------------------------
D------------------*||--------------------------------------------------
A------------------*||--------------------------------------------------
E---3-----3--3--3---||--------------------------------------------------
                                                                        

         Solo                                                           
G---||------------------------------------------------------------------
D---||*-----------------------------------------------------------------
A---||*--5-----5--5-----2h3--3-----3--3-----3h5-------------------------
E---||-------------------------------------------3-----3--3-----3h5-----
                                                                        

                                                                        
G----------------||-----------------------------------------------------
D---------------*||-----------------------------------------------------
A---5-----5--5--*||-----------------------------------------------------
E----------------||-----------------------------------------------------
                                                                        


Ted Nugent World Bowhunters, 4008 West Michigan Ave, Jackson, Michigan, 49202
			(517) 750-9060

==            Created with a demo version of BUCKET O' TAB            ==
==              tablature creation software for Windows               ==
            
Hard to play? Try these video lessons and learn fast. | Correct




comments powered by Disqus
↑ Back to top | Tablatures and chords are parodies/interpretations of the original songs. You may use it for private study, scholarship, research or language learning purposes only