>
 >
Vengeance

Vengeance Guitar Tabs

Nuclear Assault - Vengeance chords, tabs, tablatures, lyrics

Guitar lessons | Add/correct | Request | Top 50 tabs Artists:  A B C D E F G H I J K L M N O P Q R S T U V W X Y Z 0-9

Vengeance Guitar Tabs – Nuclear Assault

CD, Sheet music, Poster

Do you like Vengeance? Share with your friends now
Tabs
Band:  Nuclear Assault

Copyright (c)  (Under One Flag) (1986)
Version 1.0 - (25/03/06)



.  - palm mute           /  - slide up to
\  - slide down to       ~  - vibrato
h  - hammer on           b  - Bend
p  - pull off            Suffixes for bend
t  - tap                 f  - full bend    h - half bend
ph - pinched harmonic    q  - quarter bend t - tap bend
*  - see comment         ^  - Hold bend    r release bend
x  - Stuccatto           ~  - vibrato bend
,  - slight palm mute    () - ghost note, sustained note
"  - tremolo note        <> - Trill

Tunning E A D G B E
 

 Main Riff

E-------------------------------|
B-------------------------------|
G-9-79-79-79\7-7-9-79-79-79\5-5-|
D-9-79-79-79\7-7-9-79-79-79\5-5-|
A-7-77-77-77\5-5-7-77-77-77\3-3-|
E-------------------------------| Rpt 4 X Before vocals enter

 Rpt main riff 4 x for verse

 Chorus

  [----------------------------PM--------------------------------]
E-----------------------------------------------------------------|
B-----------------------------------------------------------------|
G-----------------------------------------------------------------|
D-----------------------------------------------------------------|
A-2-2-2-2-2-2-2-2-2-2-2-2-2-2-2-2-5-5-5-5-5-5-5-5\3-3-3-3-3-3-3-3-|
E-0-0-0-0-0-0-0-0-0-0-0-0-0-0-0-0-3-3-3-3-3-3-3-3\1-1-1-1-1-1-1-1-|
  [----------------------------PM--------------------------------]
E-----------------------------------------------------------------|
B-----------------------------------------------------------------|
G-----------------------------------------------------------------|
D---------------------------------3-3-3-3-3-3-3-3-----------------|
A-2-2-2-2-2-2-2-2-2-2-2-2-2-2-2-2-1-1-1-1-1-1-1-1-3-3-3-3-3-3-3-3-|
E-0-0-0-0-0-0-0-0-0-0-0-0-0-0-0-0-----------------1-1-1-1-1-1-1-1-|

 Rpt above

 Rpt Verse
 Rpt Chorus

 Backing for solos

E----------------------|
B----------------------|
G----------------------|
D----------------------|
A----44-444----44-444--|
E-0--22-222-0--22-222--| Rpt 4 X

  [--PM--]
E----------------|
B----------------|
G-9-99999-7-7-7--|
D-9-99999-7-7-7--|
A-7-77777-5-5-5--|
E----------------| Rpt 3 X

  [--PM--]
E--------------------------|
B--------------------------|
G-9-99999-9-9-9-9-9-9-9-9--|
D-9-99999-9-9-9-9-9-9-9-9--|
A-7-77777-7-7-7-7-7-7-7-7--|
E--------------------------|

      [PM]   [PM]
E------------------|
B------------------|
G------------------|
D------------------|
A-2-5\444-2-5\444--|
E-0-3\222-0-3\222--| Rpt 4 X 

  [--PM--]
E----------------|
B----------------|
G-9-99999-7-7-7--|
D-9-99999-7-7-7--|
A-7-77777-5-5-5--|
E----------------| Rpt 3 X

  [--PM--]
E--------------------------|
B--------------------------|
G-9-99999-9-9-9-9-9-9-9-9--|
D-9-99999-9-9-9-9-9-9-9-9--|
A-7-77777-7-7-7-7-7-7-7-7--|
E--------------------------|

E-------------------------------------------------------|
B-------------------------------------------------------|
G-9-9-9--(9)---101010-(10)-9-9-9--(9)---101010--<7>-<5>-|
D-7-7-7--(7)---8-8-8--(8)--7-7-7--(7)---8-8-8-<7>-------|
A-------------------------------------------------------|
E-------------------------------------------------------|
                                            pick scrape
E-----------------------------------------------------|
B-----------------------------------------------------|
G-9-9-9--(9)---101010-(10)-9-9-9--(9)---101010-\-\----|
D-7-7-7--(7)---8-8-8--(8)--7-7-7--(7)---8-8-8---\-\---|
A-----------------------------------------------------|
E-----------------------------------------------------|

 Backing for solo

E----------------|
B----------------|
G----------------|
D----------------|
A-4--4----5---4--|
E-2--2--0-3-0-2--| Rpt 7 X

E----------------|
B----------------|
G----------------|
D----------------|
A-5\4--5\4--/----|
E-3\2--3\2--/----|

 Rpt Verse
 Rpt Chorus 2 X

E-------------------------------------------------------------------|
B-------------------------------------------------------------------|
G-9----9----9----9----9------------------(9)---------------------9\-|
D-9----9----9----9----9------------------(9)---------------------9\-|
A-7----7----7----7----7------------------(7)---------------------7\-|
E-------------------------------------------------------------------|



END





Comments


Popular Nuclear Assault tabs & chords
Betrayal Tabs
Critical Mass 1 Tabs
F# Tabs
F# (Wake Up) Tabs
Game Over Tabs
Live, Suffer, Die Tabs
My America Tabs
New Song Tabs
Rise From The Ashes Tabs
Spell Correctly Tabs


Song lyrics



↑ Back to top | Tablatures and chords are parodies/interpretations of the original songs. You may use it for private study, scholarship, research or language learning purposes only
© 2014 AZChords.com Contact us | Privacy policy | DMCA | Add/correct tabs | Request tabs | Top 50 tabs