>
 >
Trail Of Tears

Trail Of Tears Guitar Tabs

Nuclear Assault - Trail Of Tears chords, tabs, tablatures, lyrics

Guitar lessons | Add/correct | Request | Top 50 tabs Artists:  A B C D E F G H I J K L M N O P Q R S T U V W X Y Z 0-9

Trail Of Tears Guitar Tabs – Nuclear Assault

CD, Sheet music, Poster

Do you like Trail Of Tears? Share with your friends now
Tabs
NUCLEAR ASSAULT - TRAIL OF TEARS
(Handle With Care, 1989)

Key
= after note = vibrato
^ after note = heavy vibrato 
\ = slide down
/ = slide up
+ = tap
h = hammer
p = pull
n = natural harmonic
s = pinching harmonic (squeal)
* = tremolo pick
t = trill
b = bend
|-3-| = triplet

n number above the tab = play the first part then the first finishing part
			 play the first part a second time and then play the second finishing part
			 etc.

Tune Down 1/2 Step

Riff 1

Eb ---------------------------
Bb ---------------------------
Gb -----9 ---8-----9 ---8---7-
Db -----10---9-----10---9---8-
Ab -0-0----0---0-0----0---0---
Eb ---------------------------

Riff 1A

Eb -------------------------------
Bb -------------------------------
Gb -----9 ---8-----9 ---8---------
Db -----10---9-----10---9---3-3-3-
Ab -0-0----0---0-0----0---0-3-3-3-
Eb -------------------------1-1-1-

Riff 2

Eb ------------------------------------------------------------------------------------------------------------
Bb ------------------------------------------------------------------------------------------------------------
Gb -----5---4-----5---4---3-----5---4-----5---4-------------5---4-----5---4---3-----5---4-----5---4---10-10-10-
Db -----5---4-----5---4---3-----5---4-----5---4---3-3-3-----5---4-----5---4---3-----5---4-----5---4---10-10-10-
Ab -----3---2-----3---2---1-----3---2-----3---2---3-3-3-----3---2-----3---2---1-----3---2-----3---2---8 -8 -8 -
Eb -0-0---0---0-0---0---0---0-0---0---0-0---0---0-1-1-1-0-0---0---0-0---0---0---0-0---0---0-0---0---0----------

Riff 2A

Eb -----------------------------------------------------------------------------
Bb -----------------------------------------------------------------------------
Gb -----5---4-----5---4---3-----5---4-----5---4---------------------------------
Db -----5---4-----5---4---3-----5---4-----5---4---3-3-3-----------------3-53-20-
Ab -----3---2-----3---2---1-----3---2-----3---2---3-3-3-----2-32-03-53-5--------
Eb -0-0---0---0-0---0---0---0-0---0---0-0---0---0-1-1-1-53-5--------------------

Riff 3

Eb ---------------------------------------------------------------------------------------------------------------
Bb ---------------------------------------------------------------------------------------------------------------
Gb ---------------------------------------------------------------------------------------------------------------
Db -2--2-----------------------------------------------2---2------------------------------------------------------
Ab -2--2--------7---7--------7---7--------7---7--------2---2----------7---7--------7---7--------7-7-7-7-7-7-7-7-7-
Eb -0--0--0-0-0--------0-0-0-6---6--6-6-6-6---6--6-6-6-0---0--0-0-0-0--------0-0-0-6---6--6-6-6-6-6-6-6-6-6-6-6-6-

Riff 4

Eb -------------------------------------------------------------------------------------
Bb -------------------------------------------------------------------------------------
Gb ------0----------0----------0----------0----------0----------0-----------------------
Db ---2----2-----2----2-----2----2-----2----2-----2----2-----2----2---------5-----------
Ab -2--------2-2--------2-1--------1-1--------1-0--------0-0--------0----5--------------
Eb -------------------------------------------------------------------3--------2--3--2--

Riff 4A

Eb ------------------------------------------------------------------------------------
Bb ------0--------------------0---------------------0----------------------0-----------
Gb --------0-------0------------0--------0------------0--------0-----------------------
Db ---2------2---2----2-----2-----2---2----2-----2------2---2----2---------------------
Ab -2----------2--------2-1---------1--------1-0----------0--------0----5--------------
Eb ------------------------------------------------------------------3--------2--3--2--

Riff 5 

Eb -------------------------------------------------------
Bb -------------------------------------------------------
Gb -----9 ---8-----9 ---8---7-----5---4-----5---4---------
Db -----10---9-----10---9---8-----5---4-----5---4---3-3-3-
Ab -0-0----0---0-0----0---0-------3---2-----3---2---3-3-3-
Eb ---------------------------0-0---0---0-0---0---0-1-1-1-

Order

Riff 1 x 3
Riff 1A x 1
Riff 2 x 2
Riff 3 x 2 
Riff 2 x 2
Riff 3 x 2
Riff 2 x 1
Riff 2A x 1
Riff 4 x 2
Solo over Riff 4 x 4
Riff 5 x 1
Riff 2 x 2
Solo over Riff 4A x 10





Comments


Popular Nuclear Assault tabs & chords
Critical Mass 1 Tabs
Equal Rights Tabs
F# Tabs
Game Over Tabs
Hang The Pope.. Tabs
Live, Suffer, Die Tabs
Mr. Softee Theme Tabs
Search And Seizure Tabs
Survive Tabs
Vengeance Tabs


Song lyrics



↑ Back to top | Tablatures and chords are parodies/interpretations of the original songs. You may use it for private study, scholarship, research or language learning purposes only
© 2014 AZChords.com Contact us | Privacy policy | DMCA | Add/correct tabs | Request tabs | Top 50 tabs