» » »

Game Over Tabs (ver.1)

Artists:  A B C D E F G H I J K L M N O P Q R S T U V W X Y Z # 

Game Over Tabs (ver.1)

Nuclear Assault
Rating:
5/5 (1 vote)

Hard to play? Try these video lessons and learn fast.
                

. palm mute
/ slide

  RIFF 1
e|----------------------------------------------------------------|
B|----------------------------------------------------------------|
G|----------------------------------------------------------------|
D|-7/9-------------9/10------------10/12-------------12/14--14/15-|
A|-5/7-------------7/8--------------8/10-------------10/12--12/13-|
E|-----0-0-0-0-0-0-----0-0-0-0-0-0-------0-0-0-0-0-0--------------|
       . . . . . .     . . . . . .       . . . . . .
  RIFF 2
e|----------------------|
B|----------------------|
G|----------------------|
D|-9-------4--7---10--9-|
A|-7-------2--5----8--7-|
E|----------------------|

  RIFF 3
e|-------------------------------------|
B|-------------------------------------|
G|-------------------------------------|
D|-9-------4--7---10--9----------------|
A|-7-------2--5----8--7-------9--7---5-|
E|---0-0-0--------------0-0-0-7--5---3-|
     . . .              . . .  
  RIFF 4
e|----------------------------------|
B|----------------------------------|
G|----------------------------------|
D|----------------------------------|
A|-2-------------3-4----------------|
E|-0-000-000-000-1-2-222-223-333-33-|
     ... ... ...     ... ... ... ..

  END
e|---|
B|---|
G|---|
D|-9-|
A|-7-|
E|---|


NOTE: The slides on the first riff, you have to play only the first notes.

SONGSTRUCTURE:
Riff 1: 6x
Riff 2: 4x
Riff 3: 4x
Riif 4: 4x
Riff 3: 4x
Riff 4: 4x
Riff 3: 4x
Riff 1: 4x
Riff 2: 4x
Riff 3: 4x
End: 1x



That's it, a great Thrash song from a great Thrash band.

Comments, sugestions, eulogies or anything you want tell about the tab,
send a mail.
            
Hard to play? Try these video lessons and learn fast. | Correct




comments powered by Disqus
↑ Back to top | Tablatures and chords are parodies/interpretations of the original songs. You may use it for private study, scholarship, research or language learning purposes only