>
 >
F#

F# Guitar Tabs

Nuclear Assault - F# chords, tabs, tablatures, lyrics

Guitar lessons | Add/correct | Request | Top 50 tabs Artists:  A B C D E F G H I J K L M N O P Q R S T U V W X Y Z 0-9

F# Guitar Tabs – Nuclear Assault

CD, Sheet music, Poster

Do you like F#? Share with your friends now
Tabs
NUCLEAR ASSAULT - F#
(Survive, 1988)

Key
= after note = vibrato
^ after note = heavy vibrato 
\ = slide down
/ = slide up
+ = tap
h = hammer
p = pull
n = natural harmonic
s = pinching harmonic (squeal)
* = tremolo pick
t = trill
b = bend
|-3-| = triplet

n number above the tab = play the first part then the first finishing part
			 play the first part a second time and then play the second finishing part
			 etc.

Riff 1

E ---------------------------------------------
B ---------------------------------------------
G --------------------------2---4---5---4---2--
D -2--4----4--4--4----4--4--2---4---5---4---2--
A -2--4----4--4--4----4--4--0---2---3---2---0--
E -0--2----2--2--2----2--2---------------------

Riff 1A

E --------------------------------------------------------
B --------------------------------------------------------
G -------------------------------------2---4---5---4---2--
D -------------------------------------2---4---5---4---2--
A -------------------------------------0---2---3---2---0--
E -0-2-2-2-2-2-2-2-0-2-2-2-2-2-2-2-2-2--------------------

Riff 1B

E ------------------------------------
B ------------------------------------
G --------------------------2---4---5-
D -2--4----4--4--4----4--4--2---4---5-
A -2--4----4--4--4----4--4--0---2---3-
E -0--2----2--2--2----2--2------------

Riff 2

E -------------------------------------------------------------------------------------
B -------------------------------------------------------------------------------------
G ----------------------9---9---9--7---7---7-----------------------9---9---9--7--------
D ----------------------9---9---9--7---7---7-----------------------9---9---9--7--------
A ----------------------7---7---7--5---5---5-----------------------7---7---7--5--------
E -0--0-0--0-0--------------------------------0--0-0--0-0------------------------------

Riff 3

E -----------------------------------------------------
B -----------------------------------------------------
G -----------------------------------------------------
D -7--7-7--7-7--7--7-7--7-7--7--7-7--7-7--5--5-5--5-5--
A -0--0-0--0-0--0--0-0--0-0--0--0-0--0-0--0--0-0--0-0--
E -----------------------------------------------------

Riff 3A

E -----------------------------------------------------------
B -----------------------------------------------------------
G -4----------------------------------------------2---2---2--
D -4----------------------------------------------2---2---2--
A -2--2-2-2-2-2-2-2-2-2-2-2-2-2-2-2-2-2-2-2-2-2-2-0---0---0--
E -----------------------------------------------------------

Riff 3B

E -----------------------------------------------
B -----------------------------------------------
G -4-----------------------5---4---5--7---7---7--
D -4-----------------------5---4---5--7---7---7--
A -2--2--2--2--2--2--2--2--3---2---3--5---5---5--
E -----------------------------------------------

Order

Riff 1 x 4
Riff 1A x 4
Riff 2 x 1
Riff 1 x 2
Riff 1A x 4
Riff 2 x 1
Riff 1 x 2
Solo over Riff 4 x 4
Solo over Riff 4A x 3
Solo over Riff 4B x 1
Riff 1 x 2
Riff 1A x 4
Riff 2 x 1
Riff 1 x 2
Riff 1A x 4
Riff 2 x 1
Riff 1A x 2
Riff 2 x 1
Riff 1B x 1





Comments


Popular Nuclear Assault tabs & chords
Brain Death Tabs
Critical Mass 2 Tabs
Game Over Tabs
Hang The Pope.. Tabs
Live, Suffer, Die Tabs
Mother's Day Tabs
My America Tabs
New Song 1 Tabs
Rise From The Ashes Tabs
Search And Seizure Tabs


Song lyrics



↑ Back to top | Tablatures and chords are parodies/interpretations of the original songs. You may use it for private study, scholarship, research or language learning purposes only
© 2014 AZChords.com Contact us | Privacy policy | DMCA | Add/correct tabs | Request tabs | Top 50 tabs