» » »

Nuclear Assault, Equal Rights Tabs (ver.1)

Artists:  A B C D E F G H I J K L M N O P Q R S T U V W X Y Z # 

Equal Rights Tabs (ver.1)

Nuclear Assault Tabs
 Rating:
4/5 (4 votes)
Equal Rights lessons Tabs too difficult? Try these video lessons and learn fast
                NUCLEAR ASSAULT - EQUAL RIGHTS
(Survive, 1988)

Key
= after note = vibrato
^ after note = heavy vibrato 
\ = slide down
/ = slide up
+ = tap
h = hammer
p = pull
n = natural harmonic
s = pinching harmonic (squeal)
* = tremolo pick
t = trill
b = bend
|-3-| = triplet

n number above the tab = play the first part then the first finishing part
			 play the first part a second time and then play the second finishing part
			 etc.

Riff 1

E --------------------------------------------------------------------------------------------------
B --------------------------------------------------------------------------------------------------
G --------------------------------------------------------------------------------------------------
D -6------6------6-----------------------------------------6------6------------------6--------------
A -6------6------6----------4-5---5b7-----------5-4--------6------6----------4-5---------5-------5--
E -4--4-4-4--4-4-4--4-4-4-5-------------------------5-4----4--4-4-4--4-4-4-5-----------------4------

Riff 2

E -------------------------------------------------------------------
B -------------------------------------------------------------------
G -------------7--7--------------7--7--------------7--6--9--8--7--6--
D -------------7--7--------------7--7--------------7--6--9--8--7--6--
A -------------5--5--------------5--5--------------5--4--7--6--5--4--
E -44-44-44-44-------44-44-44-44-------44-44-44-44-------------------

Riff 3

E -------------------------------------------------------------------------------------------------
B -------------------------------------------------------------------------------------------------
G -------------------------------------------------------------------------------------------------
D -------------------------------------------------------------------------------------------------
A -------------------------------------------------------------------------------------------------
E -77-77-77-77-77-77-77-77-77-77-77-77-77-77-77-77-44-44-44-44-44-44-44-44-44-44-44-44-44-44-44-44-

Riff 3A

E -------------------------------------------------
B -------------------------------------------------
G -------------------------------------------------
D -------------------------------------------------
A -------------------------------------------------
E -77-77-77-77-77-77-77-77-77-77-77-77-77-77-77-77-

Riff 4

E -------------------------------------------------------------------------------------
B -------------------------------------------------------------------------------------
G -------------------------------------6-6-6-------------------------------------9-8-9-
D -------------------------------------6-6-6-------------------------------------9-8-9-
A -------------------------------------4-4-4-------------------------------------7-6-7-
E -66-66-66-66-66-66-66-66-66-66-66-66-------66-66-66-66-66-66-66-66-66-66-66-66-------
				       |-3-|					 |-3-|

Order

Riff 1 x 2
Riff 2 x 4
Riff 3 x 3
Riff 3A x 1
Riff 2 x 4
Riff 3 x 3
Riff 3A x 1
Solo over Riff 4 x 4
Riff 2 x 4
Riff 3 x 3
Riff 3A x 1
Riff 1 x 2
            
Submit corrections

comments powered by Disqus
↑ Back to top | Nuclear Assault Tabs for Equal Rights. Lyrics for acoustic guitar and electric guitar. Tablatures and chords are parodies/interpretations of the original songs. You may use it for private study, scholarship, research or language learning purposes only