» » »

Nuclear Assault, Brain Death Tabs (ver.1)

Artists:  A B C D E F G H I J K L M N O P Q R S T U V W X Y Z # 

Brain Death Tabs (ver.1)

Nuclear Assault Tabs
 Rating:
4.2/5 (5 votes)
Brain Death lessons Tabs too difficult? Try these video lessons and learn fast
1
                ---------------|--------------------------------------------|
--------1------|--------0-0-----0-0----0-0---0-0------------|
--2---2---2----|--2---2--2-2-----2-2----2-2---2-------------|
----2-------2--|----2-------2-------2------2----------------|
--0------------|--0----------0-------0------0---------------|
---------------|--------------------------------------------|
Part A           Part B

-------------------------------------------------------------|
--------3---3-----1---1-----0--0----0-0----------------------|
--2---2------2---------2--------2----2-----------------------|
----2-----2---2-----2---2-----2--2---------------------------|
--0-------------0----------0-------0-------------------------|
-------------------------------------------------------------|
Part C

progreesion:


Part A - 4X
Part B
Part A - 4X
Part B
Part C - 2X
part A
part B
part A - 2X
part B - (1/2)X
part A - 2X
part B - (1/2)X
part C - 2X

---8~-----|
--10~-----|
---9~-----|
----------|
----------|
----------|
 ending (one octave high)


-----------------------------------------------|--------------------|
-----------------------------------------------|--------------------|
---5-5---5--4-4--4---2-2--2---2--0-------------|--------------------|
---7-7---7--5-5--5---3-3--3---3--2-------------|--2-----------------|
------00--00-- 00--00---00-00----2----0-3-2----|--2-----------------|
---------------------------------0-0-3---------|--0-----------------|
fade in
distortion on


------------------------------------------------------------------------|
------------------------------------------------------------------------|
---5---------4---------2---------9---8---7------------------------------|
---7---------5---------3---------9---8---7------------------------------|
----00000000--00000000--00000000-7---6---5------------------------------|
-----------------------------------7---6---5----------------------------|
main riff, chorus


-----------------|-----------------------------------------------|
-----------------|-----------------------------------------------|
-----------------|------4-5-7------------------------------------|
--2222-5-4-3-----|-2222-4-5-7------------------------------------|
--2222-5-4-3-----|-2222-2-3-5------------------------------------|
--0000-3-2-1-----|-0000------------------------------------------|

3X very fast verse   4th time


----------------------------|-------|--------------------------------------------|
----------------------------|-------|--------------------------------------------|
----------------------------|-------|--------------------------------------------|
--7-7-7-7--8-8-8-8-\-5----5-|--/-7--|-555555-------------------------------------|
--7-7-7-7--8-8-8-8-\-5----5-|--/-7--|-555555-------------------------------------|
--5-5-5-5--6-6-6-6-\-3----3-|--/-5--|-333333-------------------------------------|
interlude riff A


----------------------------|-----------|----------------------------------------|
----------------------------|-----------|----------------------------------------|
--5-5-5-5--6-6-6-6-\-3----3-|-6-5-3-----|-6-5-3---3------------------------------|
--5-5-5-5--6-6-6-6-\-3----3-|-------6---|-------6---6-5-3------------------------|
--3-3-3-3--4-4-4-4-\-1----1-|-----------|----------------------------------------|
----------------------------|-----------|----------------------------------------|
interlude riff B

----------------------------|-----------|----------------------------------------|
----------------------------|-----------|----------------------------------------|
--9-9-9-9-10-10-10-10-\-7---|-10-9-7----|----------------------------------------|
--9-9-9-9-10-10-10-10-\-7---|-------10--|----------------------------------------|
--7-7-7-7--8--8--8--8-\-5---|-----------|----------------------------------------|
----------------------------|-----------|----------------------------------------|
interlude riff C

----------------------------|-----------|----------------------------|
----------------------------|-----------|----------------------------|
--7-7-7-7--8-8-8-8-\-5------|-8-7-5-----|-8-7-5---5------------------|
--5-5-5-5--8-8-8-8-\-5------|-------8---|-------8---8-7-5------------|
--3-3-3-3--6-6-6-6-\-3------|-----------|----------------------------|
----------------------------|-----------|----------------------------|
interlude riff D
----------------------------------|--------------------------------|
----------------------------------|--------------------------------|
--10-10-10-10--11 11-11-11-\-8----|-11-10-8------------------------|
--10-10-10-10--11-11-11-11-\-8----|---------11---------------------|
--8--8--8--8---9--9--9--9--\-6----|--------------------------------|
----------------------------------|--------------------------------|
interlude riff E
            
Submit corrections

comments powered by Disqus
↑ Back to top | Nuclear Assault Tabs for Brain Death. Lyrics for acoustic guitar and electric guitar. 1 Tablatures and chords are parodies/interpretations of the original songs. You may use it for private study, scholarship, research or language learning purposes only