» » »

Now Now, Dead Oaks Tabs (ver.2)

Artists:  A B C D E F G H I J K L M N O P Q R S T U V W X Y Z # 

Dead Oaks Tabs (ver.2)

Now Now Tabs
 Rating:
4/5 (4 votes)
Dead Oaks lessons Tabs too difficult? Try these video lessons and learn fast
1
                   -------------------------------------------------------------------------------
                               Dead Oaks - Now, Now
    -------------------------------------------------------------------------------
     
    Tuning: standard
     
    Riff one
    e|---------------------------------------------------------------------------|
    B|---------------------------------------------------------------------------|
    G|---------------------------------------------------------------------------|
    D|---------------------------------------------------------------------------|
    A|----66666-9-66666--7766----------------------------------------------------|
    E|----77777-7-77777--7777--[x however many]----------------------------------|
     
    Riff two
    e|---------------------------------------------------------------------------|
    B|---------------------------------------------------------------------------|
    G|---------------------------------------------------------------------------|
    D|---------------------------------------------------------------------------|
    A|----5555555555555555-------------------------------------------------------|
    E|----3333333333333333-------------------------------------------------------|
     
    e|---------------------------------------------------------------------------|
    B|---------------------------------------------------------------------------|
    G|---------From what I can see, it just--------------------------------------|
    D|-------------alternates between these two, though--------------------------|
    A|-------------------it's looped/layered towards the end of the song---------|
    E|---------------------------------------------------------------------------|

and the lead guitar bit that comes in ~0.50 goes like this,
    e|---------------------------------------------------------------------------|
    B|-------11-----11----11-----11---------10----10----10----10-----------------|
    G|----10----10-----10----10-----[x2]------10----10----10----10---------------|
    D|---------------------------------------------------------------------------|
    A|---------------------------------------------------------------------------|
    E|---------------------------------------------------------------------------|


    e|---------------------------------------------------------------------------|
    B|---8----8----8-------------------------------------------------------------|
    G|----10---10---10-----------------------------------------------------------|
    D|---------------------------------------------------------------------------|
    A|---------------------------------------------------------------------------|
    E|---------------------------------------------------------------------------|
            
Submit corrections

comments powered by Disqus
↑ Back to top | Now Now Tabs for Dead Oaks. Lyrics for acoustic guitar and electric guitar. 1 Tablatures and chords are parodies/interpretations of the original songs. You may use it for private study, scholarship, research or language learning purposes only