» » »

Now Now, Neighbors Tabs (ver.1)

Artists:  A B C D E F G H I J K L M N O P Q R S T U V W X Y Z # 

Neighbors Tabs (ver.1)

Now Now Tabs
Rating:
0/5 (0 votes)
Neighbors lessons Tabs too difficult? Try these video lessons and learn fast
                
(Consider the Intro just the first 2 repeats of the first riff)

  Intro/Verse 1
e|--------------------------------------------------------------------------|
B|--------------------------------------------------------------------------|
G|--------------------------------------------------------------------------|
D|----2---2---2---2---------------2----2----2----2--------------------------|
A|--3---3---3---3--[x8]--------0----0----0----0----[x2]---------------------|
E|--------------------------------------------------------------------------|

e|--------------------------------------------------------------------------|
B|--------------------------------------------------------------------------|
G|--------------------------------------------------------------------------|
D|-----9-----9-----9------9-------------------------------------------------|
A|--10----10----10----10-----[x2]-------------------------------------------|
E|--------------------------------------------------------------------------|

e|--------------------------------------------------------------------------|
B|--------------------------------------------------------------------------|
G|--------------------------------------------------------------------------|
D|----2---2---2---2---------------2----2----2----2--------------------------|
A|--3---3---3---3--[x8]--------0----0----0----0----[x2]---------------------|
E|--------------------------------------------------------------------------|

e|--------------------------------------------------------------------------|
B|--------------------------------------------------------------------------|
G|--------------------------------------------------------------------------|
D|-----9-----9-----9------9-------------------------------------------------|
A|--10----10----10----10-----[x2]-------------------------------------------|
E|--------------------------------------------------------------------------|

(Break where there's drums for 2 bars)

e|--------------------------------------------------------------------------|
B|--------------------------------------------------------------------------|
G|--------------------------------------------------------------------------|
D|----2---2---2---2---------------------------------------------------------|
A|--3---3---3---3--[x2]-----------------------------------------------------|
E|--------------------------------------------------------------------------|

e|--------------------------------------------------------------------------|
B|--------------------------------------------------------------------------|
G|--------------------------------------------------------------------------|
D|--------10------10-------10-------10------2--2--2--2----0--0--0--0--------|
A|--8-8-8-----8-8------8-8------8-8----------3--3--3--3----2--2--2--2-------|
E|------------------------------------------------------------------[x2]----|

The song can be played with these two riffs,
I don't really know if it seems too basic or rough since i've never covered it live.
I know there are lots of other things you could do with this track, but I don't have a 
glockenspiel or more than two hands.

I'd love for someone to make a more comprehensive tab of this, as this band are 
seriously underrated right now.

anon
            
Submit corrections

comments powered by Disqus
↑ Back to top | Now Now Tabs for Neighbors. Lyrics for acoustic guitar and electric guitar. Tablatures and chords are parodies/interpretations of the original songs. You may use it for private study, scholarship, research or language learning purposes only