>
 >
Murder Is Masturbation

Murder Is Masturbation Guitar Tabs

Nothingface - Murder Is Masturbation chords, tabs, tablatures, lyrics

Guitar lessons | Add/correct | Request | Top 50 tabs Artists:  A B C D E F G H I J K L M N O P Q R S T U V W X Y Z 0-9

Murder Is Masturbation Guitar Tabs – Nothingface

CD, Sheet music, Poster

Do you like Murder Is Masturbation? Share with your friends now
TabsTabs v2Tabs v3

Tuning: Drop D, Down 2 Steps (A#,F,A#,D#,G,C)

INTRO:
|---------------------------------|
|---------------------------------|
|-----------------------4-4-4-4-4-|
|-2-2-2-2-2-2-2-2-3-3-3-5-5-5-5-5-|
|-2-------------------------------|
|-2-------------------------------|
pm  . . . . . . . . . .

INTRO 2:
|---------------------------------|
|---------------------------------|
|---------------------------------|
|---------------7-7-7-7-5-5-5-5-5-|
|-4-4-4-4-4-4-4-7-7-7-7-5-5-5-5-5-|
|---------------7-7-7-7-5-5-5-5-5-|
pm. . . . . . .

INTRO 2 END:
|-----------------|
|-----------------|
|-----------------|
|-5-5-5-5-5-5-5-5-|
|-5-5-5-5-5-5-5-5-|
|-5-5-5-5-5-5-5-5-|

VERSE: ( n^(n) = bend 1 step and release)
|-----------------------------------------------------------|
|-----------------------------------------------------------|
|-----------------------------------------------------------|
|-0-1-2--2-1-0-1-2--2-1-0-1-2-1-0-1-2--2-1-0-1-2--2-1-----3-|
|-0-1-2--2-1-0-1-2--2-1-0-1-2-1-0-1-2--2-1-0-1-2--2-1-0-2-3-|
|-0-1-2--2-1-0-1-2--2-1-0-1-2-1-0-1-2--2-1-0-1-2--2-1-0-2-3-|
pm                                                    . .

|---------------------------------------------------------------|
|---------------------------------------------------------------|
|---------------------------------------------------------------|
|-0-1-2--2-1-0-1-2--2-1-0-1-2-1-0-1-2--2-1-0-1-2--7-5-0-2-------|
|-0-1-2--2-1-0-1-2--2-1-0-1-2-1-0-1-2--2-1-0-1-2--7-5-0-2-------|
|-0-1-2--2-1-0-1-2--2-1-0-1-2-1-0-1-2--2-1-0-1-2--7-5-0-2-3^(3)-|

BRIDGE:
|-------------------|
|-------------------|
|-------------------|
|-----0-----0-------|
|-----------------0-|
|-0-2---0-2---0-0---|

FILL:
|------------------------------------------------------------|
|------------------------------------------------------------|
|-11-12-12-1212-141414-1414-14/161616/19191918-1818/19-1919\-|
|--X--X--X--X-X--X-X-X--X-X--X--X-X-X--X-X-X-X--X-X--X--X-X--|
|--9-10-10-1010-121212-1212-12/141414/17171716-1616/17-1717\-|
|------------------------------------------------------------|

|--------------------------------------------|
|--------------------------------------------|
|-12-12-1212-141414-1414-19\18-19-19\18-16---|
|--X--X--X-X--X-X-X--X-X--X--X--X--X--X--X-0-|
|-10-10-1010-121212-1212-17\16-17-17\16-14-0-|
|------------------------------------------0-|

BRIDGE FILL:
|-----------------|
|-----------------|
|-----------------|
|-0-2-2-2-2-2-2-0-|
|-0-2-2-2-2-2-2-0-|
|-0-2-2-2-2-2-2-0-|
pm. . . . . . .

INTERLUDE:
|-----------------------------------------------------------------|
|-----------------------------------------------------------------|
|-----------------------------------------------------------------|
|-----------------------------------3---5---3---5---3---5---3---5-|
|-0-4-0-5-0-4-0-5---4---5---4---5---------------------------------|
|-----------------6---6---6---6---3---3---3---3---3---3---3---3---|

|-----------------------------------------------------------------|
|-----------------------------------------------------------------|
|-----------------------------------------------3-----------------|
|---------------------------0---0---4---5---4-------4---5---4---5-|
|-0-4-0-5-0-4-0-5---4---4-2---2-----------------------------------|
|-----------------6---6-----------4---4---4---4---4---4---4---4---|

INTERLUDE 2:
|-----------------------------------------------------------------|
|-----------------9-9-9-9-9-9-9-9---------------------------------|
|-9-9-9-9-9-9-9-9-8-8-8-8-8-8-8-8-5-5-5-5-5-5-5-5-5-5-5-5-5-5-5-5-|
|-7-7-7-7-7-7-7-7-6-6-6-6-6-6-6-6-3-3-3-3-3-3-3-3-3-3-3-3-3-3-3-3-|
|-7-7-7-7-7-7-7-7-6-6-6-6-6-6-6-6-3-3-3-3-3-3-3-3-3-3-3-3-3-3-3-3-|
|-7-7-7-7-7-7-7-7-6-6-6-6-6-6-6-6-3-3-3-3-3-3-3-3-3-3-3-3-3-3-3-3-|

|----------------------------------------------------------------------|
|-----------------9-9-9-9-/12-12-12-12---------------------------------|
|-9-9-9-9-9-9-9-9-8-8-8-8-/11-11-11-11---------------------------------|
|-7-7-7-7-7-7-7-7-6-6-6-6--/9--9--9--9-------5-------5-------5-------5-|
|-7-7-7-7-7-7-7-7-6-6-6-6--/9--9--9--9-4-4-4---4-4-4---4-4-4---4-4-4---|
|-7-7-7-7-7-7-7-7-6-6-6-6--/9--9--9--9-4-4-4---4-4-4---4-4-4---4-4-4---|

|-----------------------------------------------------------------|
|-----------------9-9-9-9-9-9-------------------------------------|
|-9-9-9-9-9-9-----8-8-8-8-8-8-----5-5-5-5-5-5-5-5-5-5-5-5-5-5-5-5-|
|-7-7-7-7-7-7-9-9-6-6-6-6-6-6-9-9-3-3-3-3-3-3-3-3-3-3-3-3-3-3-3-3-|
|-7-7-7-7-7-7-9-9-6-6-6-6-6-6-9-9-3-3-3-3-3-3-3-3-3-3-3-3-3-3-3-3-|
|-7-7-7-7-7-7-9-9-6-6-6-6-6-6-9-9-3-3-3-3-3-3-3-3-3-3-3-3-3-3-3-3-|

|---------------------------------------------------------------|
|-----------------9-9-9-9---------------------------------------|
|-9-9-9-9-9-9-----8-8-8-8---------------------------------------|
|-7-7-7-7-7-7-9-9-6-6-6-6-9-9-11-11-4-4-4-4-4-4-4-4--4--4--4--4-|
|-7-7-7-7-7-7-9-9-6-6-6-6-9-9-11-11-4-4-4-4-4-4-4-4--4--4--4--4-|
|-7-7-7-7-7-7-9-9-6-6-6-6-9-9-11-11-4-4-4-4-4-4-4-4--4--4--4--4-|

OUTRO:
|-----------------------------------------------------------|
|-----------------------------------------------------------|
|-----------------------------------------------------------|
|-0-1-2--2-1-0-1-2--2-1-0-1-2-1-0-1-2--2-1-0-1-2--2-1-----3-|
|-0-1-2--2-1-0-1-2--2-1-0-1-2-1-0-1-2--2-1-0-1-2--2-1-0-2-3-|
|-0-1-2--2-1-0-1-2--2-1-0-1-2-1-0-1-2--2-1-0-1-2--2-1-0-2-3-|
pm                                                    . .

|------------------------------------------------|
|------------------------------------------------|
|------------------------------------------------|
|-0-1-2--2-1-0-1-2--2-1-0-1-2-1-0-1-2--2-1-0-1-0-|
|-0-1-2--2-1-0-1-2--2-1-0-1-2-1-0-1-2--2-1-0-1-0-|
|-0-1-2--2-1-0-1-2--2-1-0-1-2-1-0-1-2--2-1-0-1-0-|





Comments


Popular Nothingface tabs & chords
Sleeper 1 Bass Tabs
Breathe Out 1 Tabs
Ether Tabs
Filthy Tabs
For All The Sin 1 Tabs
I Am Him Tabs
Pacifier Tabs
Perfect Person Tabs
Same Solution 1 Tabs
The Sick Tabs


Song lyrics



↑ Back to top | Tablatures and chords are parodies/interpretations of the original songs. You may use it for private study, scholarship, research or language learning purposes only
© 2014 AZChords.com Contact us | Privacy policy | DMCA | Add/correct tabs | Request tabs | Top 50 tabs