>
 >
Murder Is Masturbation 2

Murder Is Masturbation 2 Guitar Tabs

Nothingface - Murder Is Masturbation 2 chords, tabs, tablatures, lyrics

Guitar lessons | Add/correct | Request | Top 50 tabs Artists:  A B C D E F G H I J K L M N O P Q R S T U V W X Y Z 0-9

Murder Is Masturbation 2 Guitar Tabs – Nothingface

CD, Sheet music, Poster

Do you like Murder Is Masturbation 2? Share with your friends now
TabsTabs v2Tabs v3
Nothingface
Murder Is Masturbation
Skeletons
Dropped-Bb(A#)




INTRO
C |---------------------|----------------------|
G |---------------------|----------------------|
Eb|---0000000-0000-0000-|----------------------|
Bb|-2-2222222-3333-5555-|-00000000-------------|
F |-2-------------------|-44444444-44444-44444-|
Bb|-2-------------------|----------77777-55555-|
      ....... ....        ........




VERSE/MainRIff
C |------------------------------------------|
G |------------------------------------------|
Eb|------------------------------------------|
Bb|-012-21-012-21-0121---012-21-012-21-------|
F |-012-21-012-21-0121---012-21-012-21-------|
Bb|-012-21-012-21-0121---012-21-012-21-02-3b-|

C |-------------------------------------------------|
G |-------------------------------------------------|
Eb|-------------------------------------------------|
Bb|-012-21-012-21-0121---012-21-012-21--------------|
F |-012-21-012-21-0121---012-21-012-21--------------|
Bb|-012-21-012-21-0121---012-21-012-21-7/6--0h3-3-6-|




CHORUS
C |-----------------|
G |-----------------|
Eb|-----------------|
Bb|-----0-----0-----|
F |---------------0-|
Bb|-0-2---0-2---0---|


2nd Chorus Solo/Lead
C |-----------------------------------------------------|
G |-----------------------------------------------------|
Eb|-11/12-1212-1212-12--12/141414-1414-1414-14/16161616-|
Bb|-x-/x--x-x--x-x--x---x-/x-x-x--x-x--x-x--x-/x-x-x-x--|
F |-9-/10-1010-1010-10--10/121212-1212-1212-12/14141414-|
Bb|-----------------------------------------------------|

C |------------------------------------------------------------------------|
G |------------------------------------------------------------------------|
Eb|-//19/18-1818/19-1919--11/12-1212-121212/141414-1414-1918-19-1918-16-14-|
Bb|-//x-/x--x-x-/x--x-x---x-/x--x-x--x-x-x-/x-x-x--x-x--x-x--x--x-x--x--x--|
F |-//17/16-1616/17-1717--9-/10-1010-101010/121212-1212-1716-17-1716-14-12-|
Bb|---------------------------------------------------------------------0--|





Clean Tone Bridge/Interlude
C |-----------------------------------------------------------------|
G |-----------------------------------------------------------------|
Eb|-----------------------------------------------------------------|
Bb|-----------------------------------3---5---3---5---3---5---3---5-|
F |---4---5---4---5---4---5---4---5---------------------------------|
Bb|-7---7---7---7---6---6---6---6---3---3---3---3---3---3---3---3---|

C |-------------------------------------------------------------------|
G |-------------------------------------------------------------------|
Eb|-------------------------------------------------------------------|
Bb|----------------------------0---0----4---5---4---8---4---5---4---5-|
F |---4---5---4---5---4---4--2---2------------------------------------|
Bb|-7---7---7---7---6---6-------------4---4---4---4---4---4---4---4---|




Heavy Bridge (full of variation ;)
C |------------------------------------------|
G |------------------------------------------|
Eb|------------------------------------------|
Bb|-------------------333-55-33-55-33-55-333-|
F |-77777777-66666666-333-33-33-33-33-33-333-|
Bb|-77777777-66666666-333-33-33-33-33-33-333-|

C |-------------------------------------------|
G |-------------------------------------------|
Eb|-------------------------------------------|
Bb|--------------------444-55-44-88-44-55-444-|
F |-77777777-6666-9999-444-44-44-44-44-44-444-|
Bb|-77777777-6666-9999-444-44-44-44-44-44-444-|

C |--------------------------------------------|
G |--------------------------------------------|
Eb|--------------------------------------------|
Bb|---------------------333-55-33-55-33-55-333-|
F |-777777-99-666666-99-333-33-33-33-33-33-333-|
Bb|-777777-99-666666-99-333-33-33-33-33-33-333-|

C |-----------------------------------------|
G |-----------------------------------------|
Eb|-----------------------------------------|
Bb|---------------------------------4-4-4-4-|
F |-777777-99-6666-99-1111-44444444-4-4-4-4-|
Bb|-777777-99-6666-99-1111-44444444-4-4-4-4-|






Last Bar In The Song, (End on OPEN!!)
C |---------------------------------|
G |---------------------------------|
Eb|---------------------------------|
Bb|-012-21-012-21-0121---012-21-010-|
F |-012-21-012-21-0121---012-21-010-|
Bb|-012-21-012-21-0121---012-21-010-|

Finetae'





Comments


Popular Nothingface tabs & chords
One Thing 1 Bass Tabs
All Cut Up 1 Tabs
Big Fun At The Gallows Tabs
Bleed Me Dry Tabs
Bleeder Tabs
Down In Flames Tabs
Gold Tooth Tabs
Grinning 1 Tabs
Scission 1 Tabs
Undercut Tabs


Song lyrics



↑ Back to top | Tablatures and chords are parodies/interpretations of the original songs. You may use it for private study, scholarship, research or language learning purposes only
© 2014 AZChords.com Contact us | Privacy policy | DMCA | Add/correct tabs | Request tabs | Top 50 tabs