» » »

Nothingface, Breathe Out Tabs (ver.3)

Artists:  A B C D E F G H I J K L M N O P Q R S T U V W X Y Z # 

Breathe Out Tabs (ver.3)

Nothingface Tabs
 Rating:
4/5 (4 votes)
Breathe Out lessons Tabs too difficult? Try these video lessons and learn fast
                

Tuning: A#, F, A#, D#, G#, C

pm= Palm-Mute
b = bend
r = release bend
~ = vibrato
h = hammer on

Intro
C |------------------------------------|
G#|------------------------------------|
D#|------------------------------------|
A#|------------------------------------|
F |--0-8-7-0-8-7-0-8-7-0-8-7-0-8-8-8-8-|
A#|--0-8-7-0-8-7-0-8-7-0-8-7-0-8-8-8-8-|

Verse
C |------------------------------|
G#|------------------------------|
D#|------------------------------|
A#|------------------------------|
F |--2-2-2--2-3-2--2-3-2--4-4-4--|
A#|--2-2-2--2-3-2--2-3-2--4-4-4--|
     PM--|

Chorus (Use Chorus Pedal)
C |--------------------------|
G#|--------------------------|
D#|--------------------------|
A#|--------------------------|
F |--0---0-0--2---2-2--------|
A#|--0---0-0--2---2-2--------|

Breakdown (Clean, Lots of Reverb and Chorus)
C |----0------0--------0------0------0-------0---|
G#|----------------------------------------------|
D#|----------------------------------------------|
A#|----------------------------------------------|
F |----------------------------------------------|
A#|-0-----2-------3--------6-----7------5--------|

C |---0-------0--------0------0-2-3-2-3-2----|
G#|------------------------------------------|
D#|------------------------------------------|
A#|------------------------------------------|
F |------------------------------------------|
A#|-0-----2-------3--------6-----------------|

End Riff		      End
C |--------------------------|------------|
G#|--------------------------|------------|
D#|--------------------------|------------|
A#|--------------------------|------------|
F |--0-0--0-0---7-6--0-0-----|--7-7-7-7---|
A#|--0-0--0-0---7-6--0-0-----|--7-7-7-7---|
     PM-----|        PM-


End On
C |-------------------|
G#|-------------------|
D#|-------------------|
A#|-------------------|
F |--2-2-2-2-2-2--2-0-|
A#|--2-2-2-2-2-2--2-0-|
     PM-----------|
            
Submit corrections

comments powered by Disqus
↑ Back to top | Nothingface Tabs for Breathe Out. Lyrics for acoustic guitar and electric guitar. Tablatures and chords are parodies/interpretations of the original songs. You may use it for private study, scholarship, research or language learning purposes only