>
 >
Breathe Out 1

Breathe Out 1 Guitar Tabs

Nothingface - Breathe Out 1 chords, tabs, tablatures, lyrics

Guitar lessons | Add/correct | Request | Top 50 tabs Artists:  A B C D E F G H I J K L M N O P Q R S T U V W X Y Z 0-9

Breathe Out 1 Guitar Tabs – Nothingface

CD, Sheet music, Poster

Do you like Breathe Out 1? Share with your friends now
TabsTabs v2Tabs v3
Dropped down 1/2 step

Pretty cool song , Once you get the rhythm the song is very easy to play.
Every Part you need in the song is here so use it. I think this tab comes close to 
90-100% , compared to the other tabs on here this one seems more right. I know some
parts in this are right cause i saw them a couple a times live. Please rate me on
this tab. Hope you Enjoy this it took me an hour its worth it though.



Intro:

--12-11--12-11--12-11--12-11--11-11-11-11-----------------------------
--10-9---10-9---10-9---10-9---9--9--9--9------------------------------ 
0------0------0------0------0----------------------------------------- 

Chorus: "I take Away"

Gtr: 1
---------------------------------7---6-------------------------10-----
------7----8----5------7---8------------7---8---5-----------7--10-----

Gtr: 2
---------------------------------------------
---------------13-14-10----------------------
---------------11-12-8-----------------------
-9~~-11~~-12~~----------9~-11~-12~-9~-11~----
-9~~-11~~-12~~----------9~-11~-12~-9~-11~----
-9~~-11~~-12~~----------9~-11~-12~-9~-11~----

Verse:



x-x--2----0--1--0---0--1-1\\\3-3-3-------------------------------------
x-x--2----0--1--0---0--1-1\\\3-3-3-------------------------------------
x-x--0----0--1--0---0--1-1\\\3-3-3-------------------------------------  

Bridge: " I see the pain "

Gtr: 1
--------1------1-------1------1-------1------1-------------------------
------------------------------------0------1---------------------------
----------------------------4------------------------------------------
----0-------2------3---------------------------------------------------

-------1------1-----1------3--4--3--4--3-------------------------------
----0------2-----3-----2-----------------------------------------------

--11-12--13/14------------------------------------------------------------
--x--x---x-/x-------------------------------------------------------------
--9--10--11/12------------------------------------------------------------

Gtr:2 ( Come in 4th time , volume low , then gets louder)

-99999999-101010101010101010-------9-10-13-13-13-9-10-13-13-13-------------
-99999999-101010110101011010-------9-10-13-13-13-9-10-13-13-13-------------
-99999999-101010101010101010-------9-10-13-13-13-9-10-13-13-13-------------
 (Note : do this a couple of times , then do this )


-------------------------------------------
-------------------------------------------
-------------------------------------------
-9999999999999999--------------------------
-9999999999999999--------------------------
-9999999999999999--------------------------
pm...............


End: "Keep it up kid"

Gtr: 1

--2--0-1-0-1--2--0-1-0-1--2--0-1-0-1--2--3-3-3-3--------------------------------
--0--0-1-0-1--0--0-1-0-1--0--0-1-0-1--0--3-3-3-3--------------------------------
--0--0-1-0-1--0--0-1-0-1--0--0-1-0-1--0--3-3-3-3--------------------------------


Gtr: 2

-------------------------------------------------------10-10-10--11-11-11-------
-------------------------------------------------------x--x--x---x---x--x-------
-------------------------------------------------------8--8--8---9---9--9-------

Gtr: 1

-9-11-12-13---9-10--11~---9-11-12-13---9-10-11~---9-11-12-13----9-10-11~--------
-9-11-12-13---9-10--11~---9-11-12-13---9-10-11~---9-11-12-13----9-10-11~--------
-9-11-12-13---9-10--11~---9-11-12-13---9-10-11~---9-11-12-13----9-10-11~--------


Gtr: 2

--11-12--13/14------------------------------------------------------------------
--x--x---x-/x-------------------------------------------------------------------
--9--10--11/12------------------------------------------------------------------

Gtr: 1

--2--0-1-0-1--2--0-1-0-1--2--0-1-0-1--2--3-3-3-3-------------2-2-2-2-2-1-3------
--0--0-1-0-1--0--0-1-0-1--0--0-1-0-1--0--3-3-3-3-------------0-0-0-0-0-1-3------
--0--0-1-0-1--0--0-1-0-1--0--0-1-0-1--0--3-3-3-3-------------0-0-0-0-0-1-3------
pm.                                                          .............

Gtr. 2

------------------------------------------------------8--8--10-10-10--11-11-----
------------------------------------------------------x--x--x--x--x---11-11-----
------------------------------------------------------6--6--8--8--8---9--9------





Comments


Popular Nothingface tabs & chords
American Love Tabs
Bleeder 2 Tabs
Ether Tabs
God Kill Tabs
Here Come The Butchers 1 Tabs
Lipsdick Tabs
Murder Is Masturbation Tabs
Murder Is Masturbation 1 Tabs
Perfect Person Tabs
Same Solution Tabs


Song lyrics



↑ Back to top | Tablatures and chords are parodies/interpretations of the original songs. You may use it for private study, scholarship, research or language learning purposes only
© 2014 AZChords.com Contact us | Privacy policy | DMCA | Add/correct tabs | Request tabs | Top 50 tabs