>
 >
All Cut Up 1

All Cut Up 1 Guitar Tabs

Nothingface - All Cut Up 1 chords, tabs, tablatures, lyrics

Guitar lessons | Add/correct | Request | Top 50 tabs Artists:  A B C D E F G H I J K L M N O P Q R S T U V W X Y Z 0-9

All Cut Up 1 Guitar Tabs – Nothingface

CD, Sheet music, Poster

Do you like All Cut Up 1? Share with your friends now
TabsTabs v2

Tuning: Drop D, Down 1/2 Step (Db,Ab,Db,Gb,Bb,Eb)

INTRO:
|------------------------------------|
|------------------------------------|
|------------------------------------|
|-2-1--0-2-5--2-1--0-2-5--2-1--0-2-5-|
|-2-1--0-2-5--2-1--0-2-5--2-1--0-2-5-|
|-2-1--0-2-5--2-1--0-2-5--2-1--0-2-5-|
pm     .           .           .

INTRO 2:
|-------------------|
|-------------------|
|-------77777777777-|
|-------XXXXXXXXXXX-|
|-00000-66666665555-|
|-00000-------------|
pm.....

INTRO 2 END: (palm mute)
|-------|
|-------|
|-------|
|-------|
|-00000-|
|-00000-|

MAIN RIFF:
|---------------------------------------------------------------------|
|---------------------------------------------------------------------|
|---------------------------------------------------------------------|
|---------------------------------------------------------------------|
|-0-3-6-3-6-3--2-3-6-3-6-3--0-3-6-3--0-3-6-3-6-3--2-3-6-3-2-3-1-0-1-0-|
|-0-3-6-3-6-3--2-3-6-3-6-3--0-3-6-3--0-3-6-3-6-3--2-3-6-3-2-3-1-0-1-0-|

BRIDGE:
|----------------|
|-5-5--9-9--9-10-|
|-4-4--8-8--8--9-|
|-2-2--6-6--6--7-|
|-2-2--6-6--6--7-|
|-2-2--6-6--6--7-|

PRE VERSE: (palm mute)
|---------------------------------|
|---------------------------------|
|---------------------------------|
|-0-0-0-0-0-0-0-0-0-0-0-0-0-0-0-0-|
|-0-0-0-0-0-0-0-0-0-0-0-0-0-0-0-0-|
|-0-0-0-0-0-0-0-0-0-0-0-0-0-0-0-0-|

VERSE:
|---------------------------------------------------------------------|
|---------------------------------------------------------------------|
|---------------------------------------------------------------------|
|---------------------------------------------------------------------|
|-0-3-6-3-6-3------------------------0-3-6-3-6-3----------------------|
|-0-3-6-3-6-3--2-3-6-3-6-3--0-3-6-3--0-3-6-3-6-3--2-3-6-3-2-3-1-0-1-0-|

|----------------------------------------------------------------|
|----------------------------------------------------------------|
|----------------------------------------------------------------|
|----------------------------------------------------------------|
|-0-3-6-3-6-3------------------------0-3-6-3-6-3------2-1--0-2-5-|
|-0-3-6-3-6-3--2-3-6-3-6-3--0-3-6-3--0-3-6-3-6-3--2-3-2-1--0-2-5-|
pm                                                         .

|---------------------------------------------------------------------|
|---------------------------------------------------------------------|
|---------------------------------------------------------------------|
|---------------------------------------------------------------------|
|-0-3-6-3-6-3--2-3-6-3-6-3--0-3-6-3--0-3-6-3-6-3--2-3-6-3-2-3-1-0-1-0-|
|-0-3-6-3-6-3--2-3-6-3-6-3--0-3-6-3--0-3-6-3-6-3--2-3-6-3-2-3-1-0-1-0-|

|----------------------------------------------------------------|
|----------------------------------------------------------------|
|----------------------------------------------------------------|
|----------------------------------------------------------------|
|-0-3-6-3-6-3--2-3-6-3-6-3--0-3-6-3--0-3-6-3-6-3--2-3-2-1--0-2-5-|
|-0-3-6-3-6-3--2-3-6-3-6-3--0-3-6-3--0-3-6-3-6-3--2-3-2-1--0-2-5-|
pm                                                         .

|-----------------------------------------|
|-----------------------------------------|
|-------------------------7-7-7-7-7-6-6-6-|
|-------------------------5-5-5-5-5-5-5-5-|
|-2-1--0-2-5--2-1--0-2-5--5-5-5-5-5-5-5-5-|
|-2-1--0-2-5--2-1--0-2-5--5-5-5-5-5-5-5-5-|
pm     .           .

CHORUS:
|--------------------------------------------------------------------|
|--------------------------------------------------------------------|
|-7-9-9-9-9-10-10-10-6-6-6-6-6-6-6-6-6-6-6-6-6-6-6-6-----------------|
|-5-7-7-7-7--8--8--8-4-4-4-4-4-4-4-4-4-4-4-4-4-4-4-4-4-5-4-0-4-5-4-0-|
|-5-7-7-7-7--8--8--8-4-4-4-4-4-4-4-4-4-4-4-4-4-4-4-4-4-5-4-0-4-5-4-0-|
|-5-7-7-7-7--8--8--8-4-4-4-4-4-4-4-4-4-4-4-4-4-4-4-4-4-5-4-0-4-5-4-0-|

|------------------------------------------------------------|
|------------------------------------------------------------|
|-7-9-9-9-9-10-10-10-6-6-6-6-6-6-6-6-12-12-12-12-12-12-12-12-|
|-5-7-7-7-7--8--8--8-4-4-4-4-4-4-4-4-10-10-10-10-10-10-10-10-|
|-5-7-7-7-7--8--8--8-4-4-4-4-4-4-4-4-10-10-10-10-10-10-10-10-|
|-5-7-7-7-7--8--8--8-4-4-4-4-4-4-4-4-10-10-10-10-10-10-10-10-|

|-----------------|
|-----------------|
|-5-5-5-5-4-4-4-4-|
|-3-3-3-3-3-3-3-3-|
|-3-3-3-3-3-3-3-3-|
|-3-3-3-3-3-3-3-3-|

|--------------------------------------------------------------------|
|--------------------------------------------------------------------|
|-7-9-9-9-9-10-10-10-6-6-6-6-6-6-6-6-6-6-6-6-6-6-6-6-----------------|
|-5-7-7-7-7--8--8--8-4-4-4-4-4-4-4-4-4-4-4-4-4-4-4-4-4-5-4-0-4-5-4-0-|
|-5-7-7-7-7--8--8--8-4-4-4-4-4-4-4-4-4-4-4-4-4-4-4-4-4-5-4-0-4-5-4-0-|
|-5-7-7-7-7--8--8--8-4-4-4-4-4-4-4-4-4-4-4-4-4-4-4-4-4-5-4-0-4-5-4-0-|

|------------------------------------------------------------|
|------------------------------------------------------------|
|-7-9-9-9-9-10-10-10-6-6-6-6-6-6-6-6-------------------------|
|-5-7-7-7-7--8--8--8-4-4-4-4-4-4-4-4-10-10-10-10-10-10-10-10-|
|-5-7-7-7-7--8--8--8-4-4-4-4-4-4-4-4-10-10-10-10-10-10-10-10-|
|-5-7-7-7-7--8--8--8-4-4-4-4-4-4-4-4-10-10-10-10-10-10-10-10-|
pm                                   .. .. .. .. .. .. ..

|------------------------|
|------------------------|
|------------------------|
|-3-3-3-3-3-3-3-3--1-1-1-|
|-3-3-3-3-3-3-3-3--1-1-1-|
|-3-3-3-3-3-3-3-3--1-1-1-|
pm  . . . . . . .

INTERLUDE: (palm mute) (pan between left and right channels)
|-----------------------------------------------------------------|
|-----------------------------------------------------------------|
|-----------------------------------------------------------------|
|-----------------------------------------------------------------|
|-----------------------------------------------------------------|
|-000-000-000-000-000-000-000-000-000-000-000-000-000-000-000-000-|

INTERLUDE 2:
|-----------------------------------------------------------------|
|-----------------------------------------------------------------|
|-----------------------------------------------------------------|
|-2-2-2-0-2-2-2-0-3-3-3-0-3-3-3-0-5-5-5-0-5-5-5-0-6-6-6-6-1-1-1-1-|
|-2-2-2-0-2-2-2-0-3-3-3-0-3-3-3-0-5-5-5-0-5-5-5-0-6-6-6-6-1-1-1-1-|
|-2-2-2-0-2-2-2-0-3-3-3-0-3-3-3-0-5-5-5-0-5-5-5-0-6-6-6-6-1-1-1-1-|

INTERLUDE 3: (palm mute)
|-----------------------------------------------------------------|
|-----------------------------------------------------------------|
|-----------------------------------------------------------------|
|-----------------------------------------------------------------|
|-----------------------------------------------------------------|
|-000-0-0-0-0-0-0-0-0-0-0-0-0-0-0-666-666-0-0-0-0-0-0-0-0-0-0-0-0-|

|-----------------------------------------------------------------|
|-----------------------------------------------------------------|
|-----------------------------------------------------------------|
|-----------------------------------------------------------------|
|-----------------------------------------------------------------|
|-666-0-0-0-0-0-0-0-0-0-0-0-0-0-0-666-666-0-0-0-0-0-0-0-0-0-0-0-0-|

|-----------------------------------------------------------------|
|-----------------------------------------------------------------|
|-----------------------------------------------------------------|
|-----------------------------------------------------------------|
|-----------------------------------------------------------------|
|-666-0-0-0-0-0-0-0-0-0-0-0-0-0-0-666-666-0-0-0-0-0-0-0-0-0-0-0-0-|

|-----------------------------------------------------------------|
|-----------------------------------------------------------------|
|-----------------------------------------------------------------|
|-----------------------------------------------------------------|
|-----------------------------------------------------------------|
|-666-0-0-0-0-0-0-0-0-0-0-0-0-0-0-666-666-0-0-0-0-0-0-0-0-0-0-0-0-|

INTERLUDE 4:
|-----------------------------------------------------------------|
|-----------------------------------------------------------------|
|-----------------------------------------------------------------|
|-----------------------------------------------------------------|
|-----------------------------------------------------------------|
|-000-0-0-0-0-0-0-0-0-0-0-0-0-0-0-666-666-0-0-0-0-0-0-0-0-0-0-0-0-|

|-----------------------------------------------------------------|
|-----------------------------------------------------------------|
|-----------------------------------------------------------------|
|-----------------------------------------------------------------|
|-------------------------------------------------0-0-0-0-0-0-0-0-|
|-666-0-0-0-0-0-0-0-0-0-0-0-0-0-0-666-666-0-0-0-0-0-0-0-0-0-0-0-0-|
pm                                                . . . . . . . .

INTERLUDE 5:
|------------------------------------------------------|
|------------------------------------------------------|
|------------------------------------------------------|
|-2-1--0-2-1--0-2-1--0-2-1--0-2-1--0-2-1--0-2-1--0-2-1-|
|-2-1--0-2-1--0-2-1--0-2-1--0-2-1--0-2-1--0-2-1--0-2-1-|
|-2-1--0-2-1--0-2-1--0-2-1--0-2-1--0-2-1--0-2-1--0-2-1-|
pm     .      .      .      .      .      .      .

|-------------------------------------------------------|
|-------------------------------------------------------|
|---------------------------------------7-7-7-7-7-6-6-6-|
|-0-2-1--0-2-5--2-1--0-2-5--2-1--0-2-5--5-5-5-5-5-5-5-5-|
|-0-2-1--0-2-5--2-1--0-2-5--2-1--0-2-5--5-5-5-5-5-5-5-5-|
|-0-2-1--0-2-5--2-1--0-2-5--2-1--0-2-5--5-5-5-5-5-5-5-5-|
pm.

OUTRO:
|-----------------------------------------------------------------|
|-----------------------------------------------------------------|
|-----------------------------------------------------------------|
|-----------------------------------------------------------------|
|-----------------------------------------------------------------|
|-000-0-0-0-0-0-0-0-0-0-0-0-0-0-0-666-666-0-0-0-0-0-0-0-0-0-0-0-0-|
pm... . . . . . . . . . . . . . . ... ... . . . . . . . . . . . .

|-----------------------------------------------------------------|
|-----------------------------------------------------------------|
|-----------------------------------------------------------------|
|-----------------------------------------------------------------|
|-----------------------------------------------------------------|
|-666-0-0-0-0-0-0-0-0-0-0-0-0-0-0-666-666-0-0-0-0-0-0-0-0-0-0-0-0-|
pm... . . . . . . . . . . . . . . ... ... . . . . . . . . . . . .

|-----------------------------------------------------------------|
|-----------------------------------------------------------------|
|-----------------------------------------------------------------|
|-----------------------------------------------------------------|
|-----------------------------------------------------------------|
|-666-0-0-0-0-0-0-0-0-0-0-0-0-0-0-666-666-0-0-0-0-0-0-0-0-0-0-0-0-|

|--------------------------------------------------------------------|
|------------------------------------------------<7>---<7>---<7>-<7>-|
|--------------------------------------------------------------------|
|--------------------------------------------------------------------|
|--------------------------------------------------------------------|
|-666-0-0-0-0-0-0-0-0-0-0-0-0-0-0-666-666-0-0-0-0---0-0---0-0---0----|
pm    . . . . . . . . . . . . . . ... ... . . . .   . .   . .   .





Comments


Popular Nothingface tabs & chords
American Love 1 Bass Tabs
Breathe Out 2 Tabs
Can't Wait For Violence Tabs
Ether Tabs
Everlasting Godstopper Tabs
For All The Sin Tabs
Machination Tabs
Murder Is Masturbation 1 Tabs
The Sick Tabs
Villains 2 Tabs


Song lyrics



↑ Back to top | Tablatures and chords are parodies/interpretations of the original songs. You may use it for private study, scholarship, research or language learning purposes only
© 2014 AZChords.com Contact us | Privacy policy | DMCA | Add/correct tabs | Request tabs | Top 50 tabs