>
 >
All Cut Up

All Cut Up Guitar Tabs

Nothingface - All Cut Up chords, tabs, tablatures, lyrics

Guitar lessons | Add/correct | Request | Top 50 tabs Artists:  A B C D E F G H I J K L M N O P Q R S T U V W X Y Z 0-9

All Cut Up Guitar Tabs – Nothingface

CD, Sheet music, Poster

Do you like All Cut Up? Share with your friends now
TabsTabs v2

PM - Palm mute
Triplets - Play notes really fast
/ - Slide up
\ - Slide down
x - Mute notes


Tuning: C G C F A D


Intro
|-------------|       |-----------|
|-------------|       |-----------|
|-------------| x3    |-----------| x5
|-3\2--0--4/6-|       |-1-1-1-1-1-|
|-3\2--0--4/6-|       |-1-1-1-1-1-|
|-3\2--0--4/6-|       |-1-1-1-1-1-|
PM     -                - - - - -


Intro/Verse
|----------------------------------------------------------------------|
|----------------------------------------------------------------------|
|----------------------------------------------------------------------| x2
|----------------------------------------------------------------------|
|----------------------------------------------------------------------|
|-0-4-7-4-7-4--0-4-7-4-7-4--0-4-7-4--0-4-7-4-7-4--0-4-7-4--0-4-3-0-3-2-|


|-------------------|
|-6-6-10-10--10-11--|
|-5-5--9--9---9-10--| x2
|-3-3--7--7---7--8--|
|-3-3--7--7---7--8--|
|-3-3--7--7---7--8--|


|---------------------|
|---------------------|
|---------------------| x1
|-3-3-3-3-3-3-3-3-3-3-|
|-3-3-3-3-3-3-3-3-3-3-|
|-3-3-3-3-3-3-3-3-3-3-|
PM- - - - - - - - - -


Verse
|---------------------------------------------------------------------|
|---------------------------------------------------------------------|
|---------------------------------------------------------------------| x2
|-0-4-7-4-7-4------------------------0-4-7-4-7-4----------------------|
|-0-4-7-4-7-4------------------------0-4-7-4-7-4----------------------|
|-0-4-7-4-7-4--0-4-7-4-7-4--0-4-7-4--0-4-7-4-7-4--0-4-7-4-0-4-3-0-3-2-|


Fill
|-------------|        
|-------------|        
|-------------| x1   
|-3\2--0--4/6-|        
|-3\2--0--4/6-|        
|-3\2--0--4/6-|      
PM     -          


Verse
|----------------------------------------------------------------------|
|----------------------------------------------------------------------|
|----------------------------------------------------------------------| x2
|----------------------------------------------------------------------|
|----------------------------------------------------------------------|
|-0-4-7-4-7-4--0-4-7-4-7-4--0-4-7-4--0-4-7-4-7-4--0-4-7-4--0-4-3-0-3-2-| 


Fill 1
|-------------|        
|-------------|        
|-------------| x3
|-3\2--0--4/6-|        
|-3\2--0--4/6-|        
|-3\2--0--4/6-|      
PM     -       


Fill 2
|------------------|
|-4-4-4-4--3-3-3-3-|
|-3-3-3-3--3-3-3-3-| x1
|-1-1-1-1--1-1-1-1-|
|-1-1-1-1--1-1-1-1-|
|-1-1-1-1--1-1-1-1-|


Chorus (no palm mutes the first time)
|-----------------------------------------------------------------------------------------------|
|-----------------------------------------------------------------------------------------------|
|-----------------------------------------------------------------------------------------------|x2
|-5/7-7-7-7/8-8-8-8-3-3-3-3-3-3-3-3--5p3-5p3--5/7-7-7-7/8-8-8-8-3-3-3-3-3-3-12-12-12-12-3-3-3-3-|
|-5/7-7-7-7/8-8-8-8-3-3-3-3-3-3-3-3--5p3-5p3--5/7-7-7-7/8-8-8-8-3-3-3-3-3-3-12-12-12-12-3-3-3-3-|
|-5/7-7-7-7/8-8-8-8-3-3-3-3-3-3-3-3--5p3-5p3--5/7-7-7-7/8-8-8-8-3-3-3-3-3-3-12-12-12-12-3-3-3-3-|
PM                                                                             -- -- --   - - -

Fill
|---------|
|---------|
|---------| x1
|-3-3-3-3-|
|-3-3-3-3-|
|-3-3-3-3-|


Verse
|---------------------------------------------------------------------|
|---------------------------------------------------------------------|
|---------------------------------------------------------------------| x2
|-0-4-7-4-7-4------------------------0-4-7-4-7-4----------------------|
|-0-4-7-4-7-4------------------------0-4-7-4-7-4----------------------|
|-0-4-7-4-7-4--0-4-7-4-7-4--0-4-7-4--0-4-7-4-7-4--0-4-7-4-0-4-3-0-3-2-|


Fill
|-------------|        
|-------------|        
|-------------| x1   
|-3\2--0--4/6-|        
|-3\2--0--4/6-|        
|-3\2--0--4/6-|      
PM     -          


Verse
|----------------------------------------------------------------------|
|----------------------------------------------------------------------|
|----------------------------------------------------------------------| x2
|----------------------------------------------------------------------|
|----------------------------------------------------------------------|
|-0-4-7-4-7-4--0-4-7-4-7-4--0-4-7-4--0-4-7-4-7-4--0-4-7-4--0-4-3-0-3-2-| 


Fill 1
|-------------|        
|-------------|        
|-------------| x3
|-3\2--0--4/6-|        
|-3\2--0--4/6-|        
|-3\2--0--4/6-|      
PM     -       


Fill 2
|------------------|
|-4-4-4-4--3-3-3-3-|
|-3-3-3-3--3-3-3-3-| x1
|-1-1-1-1--1-1-1-1-|
|-1-1-1-1--1-1-1-1-|
|-1-1-1-1--1-1-1-1-|


Chorus (no palm mutes the first time)
|-----------------------------------------------------------------------------------------------|
|-----------------------------------------------------------------------------------------------|
|-----------------------------------------------------------------------------------------------| x2
|-5/7-7-7-7/8-8-8-8-3-3-3-3-3-3-3-3--5p3-5p3--5/7-7-7-7/8-8-8-8-3-3-3-3-3-3-12-12-12-12-3-3-3-3-|
|-5/7-7-7-7/8-8-8-8-3-3-3-3-3-3-3-3--5p3-5p3--5/7-7-7-7/8-8-8-8-3-3-3-3-3-3-12-12-12-12-3-3-3-3-|
|-5/7-7-7-7/8-8-8-8-3-3-3-3-3-3-3-3--5p3-5p3--5/7-7-7-7/8-8-8-8-3-3-3-3-3-3-12-12-12-12-3-3-3-3-|
PM                                                                             -- -- --   - - -               


Fill
|---------|
|---------|
|---------| x1
|-3-3-3-3-|
|-3-3-3-3-|
|-3-3-3-3-|


Bridge - Triplets with effect
|--------------------------------------------------------|
|--------------------------------------------------------|
|--------------------------------------------------------| x2
|-2-2-2--2-2-2--2-2-2--2-2-2--2-2-2--2-2-2--2-2-2--2-2-2-|
|-2-2-2--2-2-2--2-2-2--2-2-2--2-2-2--2-2-2--2-2-2--2-2-2-|
|-2-2-2--2-2-2--2-2-2--2-2-2--2-2-2--2-2-2--2-2-2--2-2-2-|
PM- - -  - - -  - - -  - - -  - - -  - - -  - - -  - - -


|--------------------------------------------------------------|
|--------------------------------------------------------------|
|--------------------------------------------------------------| x1
|-2-2-2-0-2-2-2--2-4-4-4-2-4-4-4--4-6-6-6-4-6-6-6--5-7-7-7-3-3-|
|-2-2-2-0-2-2-2--2-4-4-4-2-4-4-4--4-6-6-6-4-6-6-6--5-7-7-7-3-3-|
|-2-2-2-0-2-2-2--2-4-4-4-2-4-4-4--4-6-6-6-4-6-6-6--5-7-7-7-3-3-|


The sevens are triplets
|---------------------------------------------------------------|
|---------------------------------------------------------------|
|---------------------------------------------------------------| x4
|-7-7-7--1-1-1-1-1-1-1-1-1-1--7-7-7--7-7-7--1-1-1-1-1-1-1-1-1-1-|
|-7-7-7--1-1-1-1-1-1-1-1-1-1--7-7-7--7-7-7--1-1-1-1-1-1-1-1-1-1-|
|-7-7-7--1-1-1-1-1-1-1-1-1-1--7-7-7--7-7-7--1-1-1-1-1-1-1-1-1-1-|
PM- - -  - - - - - - - - - -  - - -  - - -  - - - - - - - - - -


|--------------------------------------------------------------|
|--------------------------------------------------------------|
|--------------------------------------------------------------| x1
|-2-2-2-0-2-2-2--2-4-4-4-2-4-4-4--4-6-6-6-4-6-6-6--5-7-7-7-3-3-|
|-2-2-2-0-2-2-2--2-4-4-4-2-4-4-4--4-6-6-6-4-6-6-6--5-7-7-7-3-3-|
|-2-2-2-0-2-2-2--2-4-4-4-2-4-4-4--4-6-6-6-4-6-6-6--5-7-7-7-3-3-|


The zeros are triplets
|-------------------------------------------------------------|
|-------------------------------------------------------------|
|-------------------------------------------------------------| x2
|-------------------------------------------------------------|
|-0-0-0----------------------0-0-0--0-0-0---------------------|
|--------1-1-1-1-1-1-1-1-1-1--------------1-1-1-1-1-1-1-1-1-1-|


Fill
|---------------|
|---------------|
|---------------| x1
|-9-9-9-9-9-9-9-|
|-7-7-7-7-7-7-7-|
|-7-7-7-7-7-7-7-|
PM- - - - - - -


|-----------------------------------------------|
|-----------------------------------------------|
|-----------------------------------------------| x1
|-3\2-0-3\2-0-3\2-0-3\2-0-3\2-0-3\2-0-3\2-0-3\2-|
|-3\2-0-3\2-0-3\2-0-3\2-0-3\2-0-3\2-0-3\2-0-3\2-|
|-3\2-0-3\2-0-3\2-0-3\2-0-3\2-0-3\2-0-3\2-0-3\2-|
PM    -     -     -     -     -     -     -


|---------------------------------|
|---------------------------------|
|---------------------------------| x1
|-3\2-0-4/6--3\2-0-4/6--3\2-0-4/6-|
|-3\2-0-4/6--3\2-0-4/6--3\2-0-4/6-|
|-3\2-0-4/6--3\2-0-4/6--3\2-0-4/6-|


Fill
|------------------|
|-4-4-4-4--3-3-3-3-|
|-3-3-3-3--3-3-3-3-| x1
|-1-1-1-1--1-1-1-1-|
|-1-1-1-1--1-1-1-1-|
|-1-1-1-1--1-1-1-1-|


Chorus (no palm mutes the first time)
|-----------------------------------------------------------------------------------------------|
|-----------------------------------------------------------------------------------------------|
|-----------------------------------------------------------------------------------------------| x2
|-5/7-7-7-7/8-8-8-8-3-3-3-3-3-3-3-3--5p3-5p3--5/7-7-7-7/8-8-8-8-3-3-3-3-3-3-12-12-12-12-3-3-3-3-|
|-5/7-7-7-7/8-8-8-8-3-3-3-3-3-3-3-3--5p3-5p3--5/7-7-7-7/8-8-8-8-3-3-3-3-3-3-12-12-12-12-3-3-3-3-|
|-5/7-7-7-7/8-8-8-8-3-3-3-3-3-3-3-3--5p3-5p3--5/7-7-7-7/8-8-8-8-3-3-3-3-3-3-12-12-12-12-3-3-3-3-|
PM                                                                             -- -- --   - - -


Fill
|---------|
|---------|
|---------| x1
|-3-3-3-3-|
|-3-3-3-3-|
|-3-3-3-3-|                                                                              



The sevens are triplets
|---------------------------------------------------------------|
|---------------------------------------------------------------|
|---------------------------------------------------------------| x2
|-7-7-7--1-1-1-1-1-1-1-1-1-1--7-7-7--7-7-7--1-1-1-1-1-1-1-1-1-1-|
|-7-7-7--1-1-1-1-1-1-1-1-1-1--7-7-7--7-7-7--1-1-1-1-1-1-1-1-1-1-|
|-7-7-7--1-1-1-1-1-1-1-1-1-1--7-7-7--7-7-7--1-1-1-1-1-1-1-1-1-1-|
PM- - -  - - - - - - - - - -  - - -  - - -  - - - - - - - - - -


The zeros and sevens are triplets
|--------------------------------------------------------------------------------------------------------------|
|--------------------------------------------------------------------------------------------------------------|
|--------------------------------------------------------------------------------------------------------------|x1
|-------------------------------------------------------------------1-1-1-1-1-1-1-1-1-1--7-7-7--7-7-7--1-1-1-1-|
|-0-0-0----------------------0-0-0--0-0-0---------------------0-0-0-1-1-1-1-1-1-1-1-1-1--7-7-7--7-7-7--1-1-1-1-|
|--------1-1-1-1-1-1-1-1-1-1--------------1-1-1-1-1-1-1-1-1-1-------1-1-1-1-1-1-1-1-1-1--7-7-7--7-7-7--1-1-1-1-|
PM                                                                  - - - - - - - - - -  - - -  - - -  - - - -


|-------------|
|-------------|
|-------------|x1
|-1-x-1-x-1-1-|
|-1-x-1-x-1-1-|
|-1-x-1-x-1-1-|





Comments


Popular Nothingface tabs & chords
American Love 1 Bass Tabs
One Thing 1 Bass Tabs
Big Fun At The Gallowz Tabs
Bleed Me Dry Tabs
For All The Sin 1 Tabs
Grinning 1 Tabs
Hidden Hands Tabs
One Thing Tabs
Self Punishment Tabs
Undercut 1 Tabs


Song lyrics



↑ Back to top | Tablatures and chords are parodies/interpretations of the original songs. You may use it for private study, scholarship, research or language learning purposes only
© 2014 AZChords.com Contact us | Privacy policy | DMCA | Add/correct tabs | Request tabs | Top 50 tabs