» » »

Not By Choice, The Way It Used To Be Tabs (ver.1)

Artists:  A B C D E F G H I J K L M N O P Q R S T U V W X Y Z # 

The Way It Used To Be Tabs (ver.1)

Not By Choice Tabs
Rating:
0/5 (0 votes)
Hard to play? Try these video lessons and learn fast.
                This is an awesome song, that nobody knows about. I searched countless tab sites
and found nothing for this one, so my band and I tabbed it out. I suggest you
download this song, its amazing. 

PM* = Palm Mute
^ = let ring

Guitar #1 (00:13)
E------------------|------------------|-----------------|----------------|
B------------------|------------------|-----------------|----------------|
D-9-9--9--9--9--9--|-99---9--9--9--9--|-99---9--9--9--9-|-99--9----------|
G----11--9--8--9--8|----11--9--8--9--8|---11--9--8--9--8|---11--99-888999|x2
A------------------|------------------|-----------------|----------------|
E------------------|------------------|-----------------|----------------|
PM***********************************************************************

E------------------|------------------|-----------------|----------------|
B------------------|------------------|-----------------|----------------|
D-9-9--9--9--9--9--|-99---9--9--9--9--|-99---9--9--9--9-|-99--9----------|
G----11--9--8--9--8|----11--9--8--9--8|---11--9--8--9--8|---11--99-888999|
A------------------|------------------|-----------------|----------------|
E------------------|------------------|-----------------|----------------|

E-----------------|-----------|-----------|----------------|
B-----------------|-----------|-----------|----------------|
D-99--9--9--9--9--|-99---9--9-|-99---9--9-|-99---9---------|
G---11--9--8--9--8|---11--9--8|---11--9--8|---11--99-888999|
A-----------------|-----------|-----------|----------------|
E-----------------|-----------|-----------|----------------|

Guitar #2 (00:38) 
(listen to song for proper timing)
E------------------------------------------------------------------------|
B------------------------------------------------------------------------|
G-444--444444------------------------------------------------------------|
D-222--222222----222--222222----666--666666----444--444444---------------|x2
A-222--222222----222--222222----444--444444----444--444444---------------|
E----------------000--000000----444--444444----222--222222---------------|

Intro Part 2 (01:03)
Guitar #2
E------------------------------------------------------------------------|
B------------------------------------------------------------------------|
G-4^---------------------------------------------------------------------|
D-4^------------2^---------------6^--------------4^----------------------|
A-2^------------2^---------------6^--------------4^----------------------|
E---------------0^---------------4^--------------2^----------------------|

Intro Part 3 (01:15)
Both Guitars 
E------------------------------------------------------------------------|
B------------------------------------------------------------------------|
G-4444444--4444444-------------------------------------------------------|
D-4444444--4444444--2222222--2222222--6666666--6666666--4444444--4444444-|
A-2222222--2222222--2222222--2222222--4444444--4444444--4444444--4444444-|
E-------------------0000000--0000000--4444444--4444444--2222222--2222222-|

Verse (01:28)
Both Guitars
E------------------------------------------------------------------------|
B------------------------------------------------------------------------|
G--4------4--------------------------------------------------------------|
D--4------4-2---------6-------4------------------------------------------|
A--2------2-2---------6-------4------------------------------------------|
E-----------0---------4-------2------------------------------------------|

Verse cont...(01:35)
E------------------------------------------------------------------------|
B------------------------------------------------------------------------|
G-444444-----------------------------------------------------------------|
D-444444--222222-----666666-----444444-----------------------------------|
A-222222--222222-----666666-----444444-----------------------------------|
E---------000000-----444444-----222222-----------------------------------|

Pre-Chorus (01:41)
Both Guitars 			 ONLY ON THE FOURTH TIME ONE GUITAR DO THIS
E-------------------------|     E-------------------------|
B-------------------------|	B-------------------------|
G-444---------------------|	G--4^---------------------|
D-444--444----666666------|x3	D--4^--2-6----------------|
A-222--444----666666------|	A--2^--2-6----------------|
E------222----444444------|	E------0-4----------------|

Chorus (01:54)
E------------------------------------------------------------------------|
B------------------------------------------------------------------------|
G-4444-------------------------------------------------------------------|
D-4444--2222--6666--4444-------------------------------------------------|x3
A-2222--2222--6666--4444-------------------------------------------------|
E-------0000--4444--2222-------------------------------------------------|

After Chorus Thing (02:07)
E------------------------------------------------------------------------|
B------------------------------------------------------------------------|
G-44444444---------------------------------------------------------------|
D-44444444---22222222---66666666----444444^------------------------------|
A-22222222---22222222---44444444----444444^------------------------------|
E------------00000000---44444444----222222^------------------------------|

THIS IS ALL I GOT SO FAR, IT WILL BE DONE IN SOON. THIS IS 100% RIGHT!
            

comments powered by Disqus
↑ Back to top | Not By Choice Tabs for The Way It Used To Be. Lyrics for acoustic guitar and electric guitar. Tablatures and chords are parodies/interpretations of the original songs. You may use it for private study, scholarship, research or language learning purposes only