» » »

Not By Choice, The Way It Used To Be Tabs (ver.2)

Artists:  A B C D E F G H I J K L M N O P Q R S T U V W X Y Z # 

The Way It Used To Be Tabs (ver.2)

Not By Choice Tabs
 Rating:
4/5 (4 votes)
The Way It Used To Be lessons Tabs too difficult? Try these video lessons and learn fast
                This is a great song and you can't really get any tabs for it, so I tried 
my best to tab the intro to this song. This is my first tab so feel free
to correct any mistakes.

* = Palm mute
^ = Let Ring

Intro (0:13)
Guitar #1              x3                          x1
E----------------------------------|------------------------------------ 
B----------------------------------|------------------------------------  
D-----11-----9-----8-----6-----8-6-|-----11-----9----------------------- x2 
G-9-9----9-9---9-9---9-9---9-9-----|-9-9----9-9---9-9-------------------   
A----------------------------------|------------------8-8-8-9-9-9-11-11- 
E----------------------------------|------------------------------------ 
 ********************************** ************************************

Intro continued        x2                          x1
E----------------------------------|--------------------------------
B----------------------------------|--------------------------------
D-----11-----9-----8-----6-----8-6-|-----8-----6-----8-----6-----8--
G-9-9----9-9---9-9---9-9---9-9-----|-9-9---9-9---9-9---9-9---9-9----
A----------------------------------|--------------------------------
E----------------------------------|--------------------------------
               x1                                  x1
E------------------------------------|----------------------------------
B------------------------------------|----------------------------------
D-----11-----9-----------------------|-----11-----9-----8-----6-----8-6-
G-9-9----9-9---9-9-------------------|-9-9----9-9---9-9---9-9---9-9-----
A------------------8-8-8-9-9-9-11-11-|----------------------------------
E------------------------------------|----------------------------------
               x1                                  x1       
E----------------------------------|--------------------------------
B----------------------------------|--------------------------------
D-----11-----9-----11-----9-----11-|-----8-----6-----8-----6-----8--
G-9-9----9-9---9-9----9-9---9-9----|-9-9---9-9---9-9---9-9---9-9----
A----------------------------------|--------------------------------
E----------------------------------|--------------------------------
               x1     

E------------------------------------ 
B------------------------------------ 
D-----11-----9----------------------- 
G-9-9----9-9---9-9-------------------    
A------------------8-8-8-9-9-9-11-11- 
E------------------------------------

Intro (0:38)
Guitar #2
E------------------------------------------------------------------------
B------------------------------------------------------------------------
G-444--444444------------------------------------------------------------
D-222--222222----222--222222----666--666666----444--444444---------------x2
A-222--222222----222--222222----444--444444----444--444444---------------
E----------------000--000000----444--444444----222--222222---------------
     
Intro 2 (01:03)
Guitar #1
E-9---9-9---9-9---9-9---
B---9-----9-----9-----9-
D----------------------- x4 (Play as soon as done intro 2,
G-----------------------     listen to the timing.
A-----------------------
E-----------------------

Intro 2 (01:03)
Guitar #2
E------------------------------------------------------------------------
B------------------------------------------------------------------------
G-4^--------------------------------------------------------------------- x1
D-4^------------2^---------------6^--------------4^----------------------
A-2^------------2^---------------6^--------------4^----------------------
E---------------0^---------------4^--------------2^----------------------

Intro Part 3 (01:15)
Both Guitars 
E---------------------------------------------------------------------- 
B----------------------------------------------------------------------
G-4444444444444444-----------------------------------------------------  
D-4444444444444444-22222222222222222-6666666666666666-4444444444444444- x1 
A-2222222222222222-22222222222222222-4444444444444444-4444444444444444-    
E------------------00000000000000000-4444444444444444-2222222222222222-   
      ****    ****      ****    ****     ****    ****                      
                                                                         
That's it for the intro, the lyrics come in now.
            
Submit corrections

comments powered by Disqus
↑ Back to top | Not By Choice Tabs for The Way It Used To Be. Lyrics for acoustic guitar and electric guitar. Tablatures and chords are parodies/interpretations of the original songs. You may use it for private study, scholarship, research or language learning purposes only