» » »

Not By Choice, Now That You Are Leaving Bass tabs (ver.2)

Artists:  A B C D E F G H I J K L M N O P Q R S T U V W X Y Z # 

Now That You Are Leaving Bass tabs (ver.2)

Not By Choice Tabs
 Rating:
4/5 (4 votes)
Now That You Are Leaving lessons Tabs too difficult? Try these video lessons and learn fast
                
Intro
G:------------------------------------------------------------------|
D:------------------------------------------------------------------|
A:-6666666666666666----------------3333333333333333-----------------|x1
E:-----------------6666666666666666----------------4444444466666666-|

G:------------------------------------------------------------------|
D:------------------------------------------------------------------|
A:-6666666666666666----------------3333333333333333------33------55-|x3
E:-----------------6666666666666666----------------443344--665566---|

G:----------------------------------|
D:----------------------------------|
A:-6~~~~~~~~~~~~~~~-----------------|x1
E:----------------------------------|

Verse 1
G:----------------------------------|  |----------------------------------|
D:----------------------------------|  |----------------------------------|
A:-6-66666---------3-33333----------|x2|-66666666--------33333333---------|x1
E:--------6-6666666-------4~-3-4-6--|  |---------66666666--------44334466-|

G:------------------------------------------------------------------|
D:------------------------------------------------------------------|
A:-66666666--------33333333-----------------------------------------|x1
E:---------66666666--------444444446666666666666666666666666--------|

Chorus
G:------------------------------------------------------------------|
D:------------------------------------------------------------------|
A:-6666666666666666----------------3333333333333333------33------55-|x2
E:-----------------6666666666666666----------------443344--665566---|

Pre Verse
G:----------------------------------|  |----------------------------------|
D:----------------------------------|  |----------------------------------|
A:-6-66666---------3-33333----------|x1|-6-66666---------3-33333----------|x1
E:--------6-6666666-------4~-3-4-6--|  |--------6-6666666-------4-4444444-|

Verse 2
G:----------------------------------|  |----------------------------------|
D:----------------------------------|  |----------------------------------|
A:-666-------------333--------------|x1|-666-------------3~~~-------------|x1
E:------------------------4~~~~-----|  |------------------------4~~~~-----|

G:----------------------------------|
D:----------------------------------|
A:-66666666--------33333333---------|x1
E:---------66666666--------44334466-|

G:------------------------------------------------------------------|
D:------------------------------------------------------------------|
A:-66666666--------33333333-----------------------------------------|x1
E:---------66666666--------444444446666666666666666666666666--------|

Repeat:
Chorus
Pre Verse

Bridge
G:------------------------------------------------------------------|
D:------------------------------------------------------------------|
A:-----------------66666666666666663333333333333333-----------------|x2
E:-4444444444444444--------------------------------6666666666666666-|

G:----------------------------------|
D:----------------------------------|
A:----------------------------------|x1
E:-4444444444444444666666666--6--6--|

Chorus
G:------------------------------------------------------------------|
D:------------------------------------------------------------------|
A:-6666666666666666----------------3333333333333333------33------55-|x3
E:-----------------6666666666666666----------------443344--665566---|

G:---------------------------------------------------------33333333-|
D:-----------------3333333333333333555555555555555566666666---------|
A:-6666666666666666-------------------------------------------------|x1
E:------------------------------------------------------------------|

Outro
G:----------------------------------|  |----------------------------------|
D:----------------------------------|  |----------------------------------|
A:-6-66666---------3-33333----------|x1|-66666666--------333333-----------|x1
E:--------6-6666666-------4~-3-4-6--|  |---------66666666------4~~~~~-----|
            
Submit corrections

comments powered by Disqus
↑ Back to top | Not By Choice Bass for Now That You Are Leaving. Lyrics for acoustic guitar and electric guitar. Tablatures and chords are parodies/interpretations of the original songs. You may use it for private study, scholarship, research or language learning purposes only