» » »

Not By Choice, Now That You Are Leaving Bass tabs (ver.1)

Artists:  A B C D E F G H I J K L M N O P Q R S T U V W X Y Z # 

Now That You Are Leaving Bass tabs (ver.1)

Not By Choice Tabs
 Rating:
4/5 (4 votes)
Now That You Are Leaving lessons Tabs too difficult? Try these video lessons and learn fast
1
                
Standard Tuning: E,A,D,G


Riff #1 
G---------------------------------------------------------------------------I
D---1111111111111111--------------------------------------------------------I
A--------------------1111111111111111--3333333333333333----------11111111---I
E-------------------------------------------------------44444444------------I

Chorus
G-------------------------------------------------------------------------I
D---1111111111111111--------------------------------------------------0---I
A--------------------1111111111111111--3333333333333333-------3-1-0-1-----I
E-------------------------------------------------------4-3-4-------------I

Riff #3
G----------------------------------------I
D---11111111-----------------------------I
A------------11111111-33333333-------1---I
E------------------------------4-3-4-----I

Riff #4
G-----------------------------------------I
D---11111111------------------------------I
A------------11111111-33333333------------I
E------------------------------44444444---I

Pre-Chorus
G-------------------------------------------------------------I
D---11111111-------------------------------------------------I
A------------11111111-33333333----------11111111-1-1-1-1-1---I
E------------------------------44444444----------------------I

Riff #5
G--------------I
D---22---------I
A------33------I
E---------4~---I

Key Change
G----------------------------------------------------------I
D----------------------------------------------------------I
A----------------6666666666666-333333333333----------------I
E---444444444444----------------------------666666666666---I
Pre-Chorus #2
G----------------------------------------------------------------------------------------I
D----------------------------------------------------------------------------------------I
A----------------6666666666666-333333333333------------------------11111111-1-1-1-1-1---I
E---444444444444----------------------------666666666666--33333333-----------------------I

Chorus #2
G--------------------------------------0000000000000000-11111111-33333333----I
D---1111111111111111--3333333333333333---------------------------------------I
A----------------------------------------------------------------------------I
E----------------------------------------------------------------------------I

Ending
G----------------------I
D---1111---------------I
A--------1111-333------I
E-----------------4~---I

Riff #1       x1
Chorus        x3
Riff #3       x1
Riff #4 	 x2
Pre-Chorus    x1
Chous         x2
Riff #3       x1
Riff #4       x1
Riff #5       x2
Riff #3       x1
Pre-Chorus    x1
Chorus        x2
Riff #3       x1
Riff #4       x1
Key Change    x2
Pre-Chorus #2 x1
Chorus        x3
Chorus #2     x1  
Riff #3       x1
Ending        x1
            
Submit corrections

comments powered by Disqus
↑ Back to top | Not By Choice Bass for Now That You Are Leaving. Lyrics for acoustic guitar and electric guitar. 1 Tablatures and chords are parodies/interpretations of the original songs. You may use it for private study, scholarship, research or language learning purposes only