» » »

Noel Gallaghers High Flying Birds, Death Of You And Me Chords (ver.2)

Artists:  A B C D E F G H I J K L M N O P Q R S T U V W X Y Z # 

Death Of You And Me Chords (ver.2)

Noel Gallaghers High Flying Birds Tabs
 Rating:
3.4/5 (42 votes)
Death Of You And Me lessons Tabs too difficult? Try these video lessons and learn fast
                        E A D G B e
C#m/5-: x 4 5 6 5 0
B7:     x 2 1 2 0 0
Em4/F#: 2 0 0 0 0 0 

Capo: 4ª

e|-2-----3---2-0-------------------------------|
B|---0-----------0----3-4-5-0------------------|
G|-----0---0-------0----------0--4-3-2-0-------|
D|---------------------------------------0h2---|
A|---------------------------------------------|
E|---------------------------------------------|

Em   B7 (3x)  Am  C

Em   B7 (3x)  Am  C


Em   B7   Em           B7
High tide, summer in the city
    Em              B7
The kids are looking pretty
    Am         C            Em  B7
But isn’t it a pity that the sunshine
Em                 B7       Em                    B7
Is followed by the thunder, with thoughts of going under
    Am        C
And is it any wonder


        G                  B7     
Why the sea is calling out to me
                   Em    Em7  C
I seem to spend my whole life running
                      G
                     B7
The death of you and me
                     Em    Em7
Cause I can feel the storm clouds
C#m/5-        C
Sucking up my soul


Em   B7 (3x)  Am  C


Em   B7    Em              B7
High tide, life is getting faster
    Em            B7
And no one has the answer
  Am              C
I try to face the day though
     Em  B7
In a new way
  Em          B7
A bottom of a bottle
   Em             B7
Cuz every man’s a puzzle
     Am         C
Let’s run away together


        G
You and me
             B7
Forever we’d be free
               Em       Em7   C
Free to spend our whole lives running
                      G
                 B7
The death of you and me
                     Em    Em7
Cause I can feel the storm clouds
C#m/5-        C
Sucking up my soul


e|-2-----3---2-0---------------------------|
B|---0-----------0----3-4-5-0--------------|
G|-----0---0-------0----------0--4-3-2-0---|
D|-----------------------------------------|
A|-----------------------------------------|
E|-----------------------------------------|


C  B7  Em  Em7  C  B7

Em  Em4/F#  G  B  

C  B7  Em  Em7  C  B7  Em


                   G
Let’s run away and see
             B7
Forever we’d be free
                Em      Em7   C
Free to spend our whole lives running
                      G
                 B7
The death of you and me
                     Em    Em7    C 
Cause I can feel the storm clouds coming


            G               B7
Watching my tv, or is it watching me?
              Em  Em7  C
I see another new day dawning
                G          B7
It’s rising over me, my mortality
                   Em    Em7
And I can feel the storm clouds
C#m/5-        C
Sucking up my soul


e|-2-----3---2-0-------------------------------|
B|---0-----------0----3-4-5-0------------------|
G|-----0---0-------0----------0--4-3-2-0-------|
D|---------------------------------------0h2---|
A|---------------------------------------------|
E|---------------------------------------------|


Em   B7 (3x)  C  B7

Em   B7 (3x)

C  B7  Em
            
Submit corrections

comments powered by Disqus
↑ Back to top | Noel Gallaghers High Flying Birds Chords for Death Of You And Me. Lyrics for acoustic guitar and electric guitar. Tablatures and chords are parodies/interpretations of the original songs. You may use it for private study, scholarship, research or language learning purposes only