» » »

Noel Gallaghers High Flying Birds, Death Of You And Me Bass tabs (ver.1)

Artists:  A B C D E F G H I J K L M N O P Q R S T U V W X Y Z # 

Death Of You And Me Bass tabs (ver.1)

Noel Gallaghers High Flying Birds Tabs
Rating:
0/5 (0 votes)
Death Of You And Me lessons Tabs too difficult? Try these video lessons and learn fast
                --------------------------------------------------------------------------
       The Death Of You And Me - Noel Gallagher's High Flying Birds
--------------------------------------------------------------------------


Quite an easy bass line.
Nothing too taxing :P

Then again, a lot of Oasis' stuff was relatively easy to play;
and music from the High Flying Birds seems no different :)

If you want a slightly 'busier' version of this tab,
please e-mail me :P


ESTIMATED TEMPO - 106 (Andante/Walking)

LEGEND:

'|' - END of a BAR.
'W' - WHOLE NOTE
'H' - HALF NOTE

'1_-' - Allows room for notes on fret 10 and above.


INTRO:

(This note should last EIGHT beats while guitar lick plays)

 |1-2-3-4-|1-2-3-4-|
   (waaaaaaaaaaaait)
G|--------|--------|
D|7-------|--------|
A|--------|--------|
E|--------|--------|
  
 |W-------|--------|



PRE-VERSE:
    
 |1-2-3-4-|1-2-3-4-|1-2-3-4-|1-2-3-4-|   

G|--------|--------|--------|--------|
D|6-------|6-------|6-------|--------|
A|----6---|----6---|----6---|4---7--6|
E|--------|--------|--------|--------|

 |W---W---|W---W---|W---W---|W---W--H|



 |1-2-3-4-|1-2-3-4-|1-2-3-4-|1-2-3-4-|   

G|--------|--------|--------|--------|
D|6-------|6-------|6-------|--------|
A|----6---|----6---|----6---|4---7--6|
E|--------|--------|--------|--------|

 |W---W---|W---W---|W---W---|W---W--H|



VERSE 1: 

 |1-2-3-4-|1-2-3-4-|1-2-3-4-|1-2-3-4-|   

G|--------|--------|--------|--------|
D|6-------|6-------|6-------|--------|
A|----6---|----6---|----6---|4---7--6|
E|--------|--------|--------|--------|

 |W---W---|W---W---|W---W---|W---W--H|



 |1-2-3-4-|1-2-3-4-|1-2-3-4-|1-2-3-4-|   

G|--------|--------|--------|--------|
D|6-------|6-------|6-------|--------|
A|----6---|----6---|----6---|4---7--6|
E|--------|--------|--------|--------|

 |W---W---|W---W---|W---W---|W---W--H|



CHORUS 1:

 |1-2-3-4-|1-2-3-4-|1_-2_-3-4-|1-2-3-4-|

G|--------|--------|----------|--------|
D|--------|--------|----------|--------|
A|2-2-2-2/|6-6-6-6/|11-11-9-9-|7-7-7-7-|
E|--------|-----6--|-------9--|--------|

 |W-W-W-W-|W-W-WHW-|W_-W_-WHW-|W-W-W-W-|



 |1-2-3-4-|1-2-3-4-|1_-2_-3-4-|1-2-3-4-|

G|--------|--------|----------|--------|
D|--------|--------|----------|--------|
A|2-2-2-2/|6-6-6-6/|11-11-9-9-|8-8-8-8-|
E|--------|-----6--|-------9--|-----8-7|

 |W-W-W-W-|W-W-WHW-|W_-W_-WHW-|W-W-W-W-|



 |1-2-3-4-|

G|--------|
D|--------|
A|7-------|
E|--------|

 |W-------|



PRE-VERSE:

 |1-2-3-4-|1-2-3-4-|1-2-3-4-|1-2-3-4-|   

G|--------|--------|--------|--------|
D|6-------|6-------|6-------|--------|
A|----6---|----6---|----6---|4---7--6|
E|--------|--------|--------|--------|

 |W---W---|W---W---|W---W---|W---W--H|



VERSE 2:

 |1-2-3-4-|1-2-3-4-|1-2-3-4-|1-2-3-4-|   

G|--------|--------|--------|--------|
D|6-------|6-------|6-------|--------|
A|----6---|----6---|----6---|4---7--6|
E|--------|--------|--------|--------|

 |W---W---|W---W---|W---W---|W---W--H|



 |1-2-3-4-|1-2-3-4-|1-2-3-4-|1-2-3-4-|   

G|--------|--------|--------|--------|
D|6-------|6-------|6-------|--------|
A|----6---|----6---|----6---|4---7--6|
E|--------|--------|--------|--------|

 |W---W---|W---W---|W---W---|W---W--H|


 
CHORUS 2:

 |1-2-3-4-|1-2-3-4-|1_-2_-3-4-|1-2-3-4-|

G|--------|--------|----------|--------|
D|--------|--------|----------|--------|
A|2-2-2-2/|6-6-6-6/|11-11-9-9-|7-7-7-7-|
E|--------|-----6--|-------9--|--------|

 |W-W-W-W-|W-W-WHW-|W_-W_-WHW-|W-W-W-W-|



 |1-2-3-4-|1-2-3-4-|1_-2_-3-4-|1-2-3-4-|

G|--------|--------|----------|--------|
D|--------|--------|----------|--------|
A|2-2-2-2/|6-6-6-6/|11-11-9-9-|8-8-8-8-|
E|--------|-----6--|-------9-8|-----8-7|

 |W-W-W-W-|W-W-WHW-|W_-W_-WHHH|W-W-WHHH|



(HOLD for as long as possible again)

 |1-2-3-4-|1-2-3-4-|1-2-3-4-|
          (guitar lick plays)
G|--------|--------|--------|
D|--------|--------|--------|
A|7-------|--------|------4/|
E|--------|--------|--------|

 |W-------|--------|------W-|



MIDDLE 8 (INSTRUMENTAL):

 |1-2-3-4-|1_-2_-3-4-|1-2-3-4-|1-2-3-4-|

G|--------|----------|--------|--------|
D|--------|----------|--------|--------|
A|7-7-6-6/|11-11-9-9-|7-7-6-6-|--------|
E|-----6--|-------9--|-----6--|4-6-7-7-|

 |W-W-WHW-|W_-W_-WHW-|W-W-WHW-|W-W-W-W-|



 |1-2-3-4-|1_-_2_-3-4-|1-2-3-4-|1-2-3-4-|

G|--------|-----------|--------|--------|
D|--------|-----------|--------|--------|
A|7-7-6-6/|1113119--9-|7-7-6-6-|------1-|
E|---7-6--|--------9-7|--------|4-------|

 |W-WHWHW-|H_H_H_W-HHH|W-W-W-W-|W-----W-|

('1113119' = 11-13-11-9)



CHORUS 3:

 |1-2-3-4-|1-2-3-4-|1_-2_-3-4-|1-2-3-4-|

G|--------|--------|----------|--------|
D|--------|--------|----------|--------|
A|2-2-2-2/|6-6-6-6/|11-11-9-9-|7-7-7-7-|
E|--------|--------|-------9-7|--------|

 |W-W-W-W-|W-W-W-W-|W_-W_-WHWH|W-W-W-W-|



 |1-2-3-4-|1-2-3-4-|1_-2_-3-4-|1-2-3-4-|

G|--------|--------|----------|--------|
D|--------|--------|----------|--------|
A|2-2-2-2/|6-6-6-6/|11-11-9-9-|7-7-7-7-|
E|--------|--------|-------9-7|--------|

 |W-W-W-W-|W-W-W-W-|W_-W_-WHWH|W-W-W-W-|



 |1-2-3-4-|1-2-3-4-|1_-2_-3-4-|1-2-3-4-|

G|--------|--------|----------|--------|
D|--------|--------|----------|--------|
A|2-2-2-2/|6-6-6-6/|11-11-9-9-|7-7-7-7-|
E|--------|--------|-------9-7|--------|

 |W-W-W-W-|W-W-W-W-|W_-W_-WHWH|W-W-W-W-|



 |1-2-3-4-|1-2-3-4-|1_-2_-3-4-|1-2-3-4-|

G|--------|--------|----------|--------|
D|--------|--------|----------|--------|
A|2-2-2-2/|6-6-6-6/|11-11-9-9-|8-8-8-8-|
E|--------|--------|-------9-9|-----8-7|

 |W-W-W-W-|W-W-W-W-|W_-W_-WHWH|W-W-WHWH|



 |1-2-3-4-|

G|--------|
D|--------| HOLD this note for as long as possible
A|7-------| and wait for the guitar lick to play again.
E|--------| When you hear it, wait for eight beats like in the intro.

 |W-------|



OUTRO:

(The last two beats of the fourth bar are CUT OFF).

 |1-2-3-4-|1-2-3-4-|1-2-3-4-|1-2-|   
                                  (NEXT LINE)
G|--------|--------|--------|----|
D|6-------|6-------|6-------|2-1/|
A|----6---|----6---|----6---|----|
E|--------|--------|--------|----|

 |W---W---|W---W---|W---W---|W-W-|



 |1-2-3-4-|1-2-3-4-|1-2-3-4-|1-2-3-4-|| 
  
                         (slightly slower)
G|--------|--------|--------|--------||
D|6-------|6-------|6-------|2-1/6---||
A|----6---|----6---|----6---|--------||(END OF SONG)
E|--------|--------|--------|--------||

 |W---W---|W---W---|W---W---|W-W-W---||
            

comments powered by Disqus
↑ Back to top | Noel Gallaghers High Flying Birds Bass for Death Of You And Me. Lyrics for acoustic guitar and electric guitar. Tablatures and chords are parodies/interpretations of the original songs. You may use it for private study, scholarship, research or language learning purposes only