>
 >
Blue Skies

Blue Skies Guitar Tabs

Noah And The Whale - Blue Skies chords, tabs, tablatures, lyrics

Guitar lessons | Add/correct | Request | Top 50 tabs Artists:  A B C D E F G H I J K L M N O P Q R S T U V W X Y Z 0-9

Blue Skies Guitar Tabs – Noah And The Whale

CD, Sheet music, Poster

Do you like Blue Skies? Share with your friends now
ChordsChords v2TabsTabs v2Ukulele
Blue Skies (alternate acoustic version)- Noah and the Whale


^(URL of video this was written from)

Key:C

Enjoy.

C|---------------0--------------------------------------------------------|
G|---------------0--------------------------------------------------------|
E|--/8-7-5-0h3p0-1-----------------3--------------------------------------|
C|---------------0---2/4-2-0-0h2p0-4-0-0h2p0------------------------------|
G|---------------2-----------------5---------0----------------------------|
C|-0---------------0---------------5--------------------------------------|

|-------------------------------------------------------------------------|
|-5/7-7/9-9-----7-5-------------------------------------------------------|
|-----------x2-------1-0-3------------------------------------------------|
|-5/7-7/9-9-----7-4--0-0-4----0-0h2p0-------------------------------------|
|--------------------2-0-5------------0-----------------------------------|
|----------------------0-5-0----------------------------------------------|


|--------------------|-------------------------------------------------------|
|--0-0-0-0-0-0-2-----|------0---0-0-----0--0---------------------------------|
|--------------------|x2--0-----------0--0---x2------------------------------|
|---4-4-4-4-2-0-0h2p0|-------0-4-0-------0-----------------------------------|x2
|-0------------------|-------------0-2---------------------------------------|
|--------------------|----5--------------------------------------------------|

|--------------------------------------------------------------------------------|
|----0---0-0-------0-----0-------------------------------------------------------|
|---0------------0-----0---------------------------------------------------------|
|-----0-4-0---------2/4----------------------------------------------------------|
|------------0-2-----------------------------------------------------------------|
|-0------------------------------------------------------------------------------|

|:
|---------------------|----------------------|-----------------------------|
|---0--------0------0-|----0--------0------0-|-----0----0------------------|
|-------0--------0----|-------0--------0-----|-----------------------------|
|---0----0---0----0---|----0----0---0----0---|---0----0--------------------|
|---------------------|----------------------|-----------------------------|
|-0---0----0---0------|--0---0----0---0------|-2----4----------------------|

|--------------------------------------------------------------------------------|
|----0-----0---0-------0-----0---------------------------------------------------|
|---0----------------0-----0-----------------------------------------------------|
|------0-4---0-----------0-------------------------------------------------------|
|----------------0-2-------------------------------------------------------------|
|-5------------------------------------------------------------------------|  ---|

|:
|-----------------------------------------------------------------------------|
|--0-------0---0-------0------------------------------------------------------|
|------0-----------0----------------------------------------------------------|
|--0-----0-----0-----0--------------------------------------------------------|
|-----------------------------------------------------------------------------|
|-2--2-------2---2--------------------------------------------------------|---|

|:
|--------------------------------------------------------------------------------|
|----0---0-0-------0-----0-------------------------------------------------------|
|---0------------0-----0---------------------------------------------------------|
|-----0-4-0----------0-----------------------------------------------------------|
|------------0-2-----------------------------------------------------------------|
|-0------------------------------------------------------------------------|-----|


|-------------------------------------------------------------------------|
|--0-------0---0-------0--------------------------------------------------|
|------0-----------0------------------------------------------------------|
|--0-----0-----0-----0----------------------------------------------------|
|-------------------------------------------------------------------------|
|-2--2-------2---2--------------------------------------------------------|


|-------------------------------------------------------------------------|
|--0-------0---0-------0--------------------------------------------------|
|------0-----------0------------------------------------------------------|
|--0-----0-----0-----0----------------------------------------------------|
|-------------------------------------------------------------------------|
|-5--5-------5---5--------------------------------------------------------|

|:
|--------------------------------------------------------------------------------|
|----0---0-0-------0-----0-------------------------------------------------------|
|---0------------0-----0---------------------------------------------------------|
|-----0-4-0---------2/4----------------------------------------------------------|
|------------0-2-----------------------------------------------------------------|
|-0------------------------------------------------------------------------|-----|

|-------------------------------------------------------------------------|
|--0-0-0-0-0-0-2-----------0---0-0-----0--0-------------------------------|
|---4-4-4-4-2-0-0h2p0-x2--0-----------0--0---x2---------------------------|
|---------------------------0-4-0-------0---------------------------------|x2
|-0-------------------------------0-2-------------------------------------|
|------------------------5------------------------------------------------|

|:
|---------------------|----------------------|-----------------------------|
|---0--------0------0-|----0--------0------0-|-----0----0------------------|
|-------0--------0----|-------0--------0-----|-----------------------------|
|---0----0---0----0---|----0----0---0----0---|---0----0--------------------|
|---------------------|----------------------|-----------------------------|
|-0---0----0---0------|--0---0----0---0------|-2----4----------------------|

|---------------------------------------------------------------------------------|
|----0-----0---0-------0-----0----------------------------------------------------|
|---0----------------0-----0------------------------------------------------------|
|------0-4---0-----------0--------x2----------------------------------------------|
|----------------0-2--------------------------------------------------------------|
|-5------------------------------------------------------------------------|  ----|

|:
|-----------------------------------------------------------------------------|
|--0-------0---0-------0------------------------------------------------------|
|------0-----------0----------------------------------------------------------|
|--0-----0-----0-----0--------------------------------------------------------|
|-----------------------------------------------------------------------------|
|-2--2-------2---2--------------------------------------------------------|---|

|:
|--------------------------------------------------------------------------------|
|----0---0-0-------0-----0-------------------------------------------------------|
|---0------------0-----0---------------------------------------------------------|
|-----0-4-0----------0-----------------------------------------------------------|
|------------0-2-----------------------------------------------------------------|
|-0------------------------------------------------------------------------|-----|

|-------------------------------------------------------------------------|
|--0-------0---0-------0--------------------------------------------------|
|------0-----------0------------------------------------------------------|
|--0-----0-----0-----0----------------------------------------------------|
|-------------------------------------------------------------------------|
|-2--2-------2---2--------------------------------------------------------|


|-------------------------------------------------------------------------|
|--0-------0---0-------0--------------------------------------------------|
|------0-----------0------------------------------------------------------|
|--0-----0-----0-----0----------------------------------------------------|
|-------------------------------------------------------------------------|

|:
|--------------------------------------------------------------------------------|
|----0---0-0-------0-----0-------------------------------------------------------|
|---0------------0-----0---------------------------------------------------------|
|-----0-4-0----------0-----------------------------------------------------------|
|------------0-2-----------------------------------------------------------------|
|-0------------------------------------------------------------------------|-----|

|:
|-------------------------------------------------------------------------------|
|---5-------5---5-------5-------------------------------------------------------|
|-------5-----------5-----------------------------------------------------------|
|---5-----5-----5-----5---------------------------------------------------------|
|-------------------------------------------------------------------------------|
|-5---5-------5---5-------------------------------------------------------------|

|-------------------------------------------------------------------------------|
|---5-------5---5---------------------------------------------------------------|
|-------5-----------5-----------------------------------------------------------|
|---5-----5-----5-----0---------------------------------------------------------|
|-------------------------------------------------------------------------------|
|-5---5-------5---5-------------------------------------------------------------|

(bar 10 and repeat above pattern)

|---------------------------------------------------------------------------------|
|---5-------5---5-------5---------------------------------------------------------|
|-------5-----------5-------------------------------------------------------------|
|---5-----5-----5-----5-----------------------------------------------------------|
|---------------------------------------------------------------------------------|
|-5---5-------5---5-----------------------------------------------------------|---|x3

|:
|-------------------------------------------------------------------------|
|--0-------0---0-------0--------------------------------------------------|
|------0-----------0------------------------------------------------------|
|--0-----0-----0-----0----------------------------------------------------|
|-------------------------------------------------------------------------|
|-2--2-------2---2--------------------------------------------------------|

|-----------------------------------------------------------------------------|
|--0-------0---0-------0------------------------------------------------------|
|------0-----------0----------------------------------------------------------|
|--0-----0-----0-----0--------------------------------------------------------|
|-----------------------------------------------------------------------------|
|-5--5-------5---5--------------------------------------------------------|---|x3

|--------------------------------------------------------------------------------|
|----0---0-0-------0-----0-------------------------------------------------------|
|---0------------0-----0---------------------------------------------------------|
|-----0-4-0----------0-----------------------------------------------------------|
|------------0-2-----------------------------------------------------------------|
|-0------------------------------------------------------------------------------|

|--------------------------------------------------------------------------------|
|----0---0-0-------0-----0-------------------------------------------------------|
|---0------------0-----0---------------------------------------------------------|
|-----0-4-0---------2/4----------------------------------------------------------|
|------------0-2-----------------------------------------------------------------|
|-0------------------------------------------------------------------------------|

|-------------------------------------------------0------------------------|
|--0-0-0-0-0-0-2-----------0---0-0-----0--0-------0------------------------|
|---4-4-4-4-2-0-0h2p0-x2--0-----------0--0---x2---0------------------------|
|---------------------------0-4-0-------0---------0------------------------|x4
|-0-------------------------------0-2-------------0------------------------|
|------------------------5------------------------0------------------------|
___________________________________________________________________________
|-------------------------------------------------------------------------|
|-------------------------------------------------------------------------|
|-------------------------------------------------------------------------|
|----4-4-4-4-2-0--0h20--4-4-4-4-2-0--0h20---0h4-0-----0---0h4-0-----------|x2
|-------------------------------------------------0h2-----------0h2-2h4---|
|-0--------------------0-----------------5--------------5-----------------|

Bridge at beginning of lyrics

|-------------------------------------------------------------------------|
|-------------------------------------------------------------------------|
|-------------------------------------------------------------------------|
|---2---2-0----0-------0h4-0-----0---0h4-0-----0--------------------------|x3
|-----0-0-0-x4---------------0h2-----------0h2----------------------------|
|-0-----0-0------2-4-5-------------5--------------------------------------|





Comments


Popular Noah And The Whale tabs & chords
Hold My Hand As Im Lowered 3 Chords
I Have Nothing 1 Chords
Lifegoeson 3 Chords
Rocks And Daggers Chords
Shape Of My Heart 2 Chords
Slow Glass Chords
2 Atoms In A Molecule 3 Tabs
Sometimes Tabs
Beating Ukulele
Our Window Ukulele


Song lyrics



↑ Back to top | Tablatures and chords are parodies/interpretations of the original songs. You may use it for private study, scholarship, research or language learning purposes only
© 2014 AZChords.com Contact us | Privacy policy | DMCA | Add/correct tabs | Request tabs | Top 50 tabs