» » »

5 Years Time Tabs (ver.1)

Artists:  A B C D E F G H I J K L M N O P Q R S T U V W X Y Z # 

5 Years Time Tabs (ver.1)

Noah And The Whale
Rating:
4/5 (8 votes)

Hard to play? Try these video lessons and learn fast.
                ----------------------------------------------------------------------------
                       5 YEARS TIME- Noah and the Whale
----------------------------------------------------------------------------


Tuning: Standard



Not sure of the names of these chords but they are repeated throughout...

e|----8-------x-------x-------x------|
B|----8-------10------12------10-----|
G|----9-------10------12------10-----|
D|----10------10------12------10-----|
A|----10------8-------10------8------|
E|----8-------x-------x-------x------|


This little riff comes up sometimes too; it goes with the whistling + flute...

e|----10--12--12----10--12--12----10--12--12----10--12--15-------|
B|---------------------------------------------------------13----|
G|---------------------------------------------------------------|
D|---------------------------------------------------------------|  (repeat)
A|---------------------------------------------------------------|
E|---------------------------------------------------------------|

Fun song so enjoy!
            
Hard to play? Try these video lessons and learn fast. | Correct




comments powered by Disqus
↑ Back to top | Tablatures and chords are parodies/interpretations of the original songs. You may use it for private study, scholarship, research or language learning purposes only