» » »

Nirvana, Territorial Pissings Bass tabs (ver.1)

Artists:  A B C D E F G H I J K L M N O P Q R S T U V W X Y Z # 

Territorial Pissings Bass tabs (ver.1)

Nirvana Tabs
Rating:
1/5 (1 vote)
Territorial Pissings lessons Tabs too difficult? Try these video lessons and learn fast
                Territorial p**sings
   --------------------

G-------------------------------------------------------------||
D-------------------------------------------------------------||
A-------------------8-8-8-8-8-8-8-8-5-6-6-5-6-6-5-6-6-5-6-6---||
E---5-5-5-5-5-5-5-5-------------------------------------------||



G-------------------------------------------------------------||
D-------------------------------------------------------------||
A-------------------8-8-8-8-8-8-8-8-5-5-5-5-5-5-5-5-5-5-5-5---||
E---5-5-5-5-5-5-5-5-------------------------------------------||
 
8) Drain You
   ---------

G------------------------------------||
D------------------------------------||
A---2--2-2/5-5-5-5-----------5-5-0---||
D-------------------------4-4-4------||

Chorus

G-------------------------------------||
D-------------------------------------||
A---4-4-4-4-4-4-4-4-------------------||
D-------------------0-0-0-0-0-0-0-0---||

Bridge 

G-----------------------------||
D-----------------------------||
A-----------------------------||
D---0-0-0-0-0-0-0-0-0-0-0-0---|| Over and over again

9) Lounge Act
   ----------

Verse and Chorus

G-------------|-------|-----------|----------|-------|-------------||
D--------5----|-------|-----------|----------|-------|-------------||
A------6------|-------|---6-5-----|----6-5---|-------|---6-5-------||
E---/8------4-|-4-3-4-|-4-----8-6-|--8-----4-|-4-3-4-|-4-----8-7---||
            

comments powered by Disqus
↑ Back to top | Nirvana Bass for Territorial Pissings. Lyrics for acoustic guitar and electric guitar. Tablatures and chords are parodies/interpretations of the original songs. You may use it for private study, scholarship, research or language learning purposes only