» » »

Nirvana, Territorial Pissings Bass tabs (ver.2)

Artists:  A B C D E F G H I J K L M N O P Q R S T U V W X Y Z # 

Territorial Pissings Bass tabs (ver.2)

Nirvana Tabs
 Rating:
4/5 (4 votes)
Territorial Pissings lessons Tabs too difficult? Try these video lessons and learn fast
                Nirvana - Territorial p**sings
Bass

---------------------------------------------------------
---------------------------------------------------------
---------------8-8-8-8-8-8-------------------------------
--5-5-5-5-5-5---------------10-10-10-10-10-10-10-10-10-10

---------------------------------------------------------
---------------------------------------------------------
---------------8-8-8-8-8-8-------------------------------
--5-5-5-5-5-5---------------10-10-10-10-10-10-10-10-10-10

Play this a lot.

I think thats it even though I don't play bass
            
Submit corrections

comments powered by Disqus
↑ Back to top | Nirvana Bass for Territorial Pissings. Lyrics for acoustic guitar and electric guitar. Tablatures and chords are parodies/interpretations of the original songs. You may use it for private study, scholarship, research or language learning purposes only