» » »

Nirvana, Teritorrial Pissings Tabs (ver.2)

Artists:  A B C D E F G H I J K L M N O P Q R S T U V W X Y Z # 

Teritorrial Pissings Tabs (ver.2)

Nirvana Tabs
Rating:
0/5 (0 votes)
Hard to play? Try these video lessons and learn fast.
                Tuning: Standard

This is the whole main riff, play through the whole song
|---------|-------------|-------------|-------------|
|---------|-------------|-------------|-------------|
|---------|-10-10-10-10-|-------------|-------------|
|-7-7-7-7-|-10-10-10-10-|-12-12-12-12-|-12-12-12-12-|
|-7-7-7-7-|-8--8--8--8--|-12-12-12-12-|-12-12-12-12-|
|-5-5-5-5-|-------------|-10-10-10-10-|-10-10-10-10-|

Bridge:

|---------|-------------|
|---------|-7-----------|
|---------|---7---------|
|-----7---|-----7-7-----|
|-----7---|-------7-----|
|-5-5-5---|-------5-----|
PM.....|
            

comments powered by Disqus
↑ Back to top | Nirvana Tabs for Teritorrial Pissings. Lyrics for acoustic guitar and electric guitar. Tablatures and chords are parodies/interpretations of the original songs. You may use it for private study, scholarship, research or language learning purposes only