» » »

Teritorrial Pissings Tabs (ver.1)

Artists:  A B C D E F G H I J K L M N O P Q R S T U V W X Y Z # 

Teritorrial Pissings Tabs (ver.1)

Nirvana
Rating:
0/5 (0 votes)

Hard to play? Try these video lessons and learn fast.
                Tuning: Standard

Intro 2x:
E-------------------|--------------------------|
B-------------------|--------------------------|
G-------------------|--10-10-10-10-10-10-10-0--|
D--7-7-7-7-7-7-7-0--|--10-10-10-10-10-10-10-0--|
A--7-7-7-7-7-7-7-0--|--8--8--8--8--8--8--8--0--|
E--5-5-5-5-5-5-5-0--|--------------------------|

E-------------------|-------------------|
B-------------------|-------------------|
G--7-7-7-7-7-7-7-7--|--7-7-7-7-7-7-7-0--|
D--7-7-7-7-7-7-7-7--|--7-7-7-7-7-7-7-0--|
A--5-5-5-5-5-5-5-5--|--5-5-5-5-5-5-5-0--|
E-------------------|-------------------|

1st Verse 2x:
E-------------------|--------------------------|
B-------------------|--------------------------|
G-------------------|--10-10-10-10-10-10-10-0--|
D--7-7-7-7-7-7-7-0--|--10-10-10-10-10-10-10-0--|
A--7-7-7-7-7-7-7-0--|--8--8--8--8--8--8--8--0--|
E--5-5-5-5-5-5-5-0--|--------------------------|

E-------------------|-------------------|
B-------------------|-------------------|
G--7-7-7-7-7-7-7-7--|--7-7-7-7-7-7-7-0--|
D--7-7-7-7-7-7-7-7--|--7-7-7-7-7-7-7-0--|
A--5-5-5-5-5-5-5-5--|--5-5-5-5-5-5-5-0--|
E-------------------|-------------------|

Chorus 2x:
E-------------------|--------------------------|
B-------------------|--------------------------|
G-------------------|--10-10-10-10-10-10-10-0--|
D--7-7-7-7-7-7-7-0--|--10-10-10-10-10-10-10-0--|
A--7-7-7-7-7-7-7-0--|--8--8--8--8--8--8--8--0--|
E--5-5-5-5-5-5-5-0--|--------------------------|

E-------------------|-------------------|
B-------------------|-------------------|
G--7-7-7-7-7-7-7-7--|--7-7-7-7-7-7-7-0--|
D--7-7-7-7-7-7-7-7--|--7-7-7-7-7-7-7-0--|
A--5-5-5-5-5-5-5-5--|--5-5-5-5-5-5-5-0--|
E-------------------|-------------------|

2nd Verse 2x:
E-------------------|--------------------------|
B-------------------|--------------------------|
G-------------------|--10-10-10-10-10-10-10-0--|
D--7-7-7-7-7-7-7-0--|--10-10-10-10-10-10-10-0--|
A--7-7-7-7-7-7-7-0--|--8--8--8--8--8--8--8--0--|
E--5-5-5-5-5-5-5-0--|--------------------------|

E-------------------|-------------------|
B-------------------|-------------------|
G--7-7-7-7-7-7-7-7--|--7-7-7-7-7-7-7-0--|
D--7-7-7-7-7-7-7-7--|--7-7-7-7-7-7-7-0--|
A--5-5-5-5-5-5-5-5--|--5-5-5-5-5-5-5-0--|
E-------------------|-------------------|

Chorus 4x:
E-------------------|--------------------------|
B-------------------|--------------------------|
G-------------------|--10-10-10-10-10-10-10-0--|
D--7-7-7-7-7-7-7-0--|--10-10-10-10-10-10-10-0--|
A--7-7-7-7-7-7-7-0--|--8--8--8--8--8--8--8--0--|
E--5-5-5-5-5-5-5-0--|--------------------------|

E-------------------|-------------------|
B-------------------|-------------------|
G--7-7-7-7-7-7-7-7--|--7-7-7-7-7-7-7-0--|
D--7-7-7-7-7-7-7-7--|--7-7-7-7-7-7-7-0--|
A--5-5-5-5-5-5-5-5--|--5-5-5-5-5-5-5-0--|
E-------------------|-------------------|

Bridge:
15x:
E---------|  |-----------|
B---------|  |--7--------|
G---------|  |----7------|
D------7--|  |------7-7--|
A------7--|  |--------7--|
E--5-5-5--|  |--------5--|
PM~~~~|

Chorus 8x:
E-------------------|--------------------------|
B-------------------|--------------------------|
G-------------------|--10-10-10-10-10-10-10-0--|
D--7-7-7-7-7-7-7-0--|--10-10-10-10-10-10-10-0--|
A--7-7-7-7-7-7-7-0--|--8--8--8--8--8--8--8--0--|
E--5-5-5-5-5-5-5-0--|--------------------------|

E-------------------|-------------------|
B-------------------|-------------------|
G--7-7-7-7-7-7-7-7--|--7-7-7-7-7-7-7-0--|
D--7-7-7-7-7-7-7-7--|--7-7-7-7-7-7-7-0--|
A--5-5-5-5-5-5-5-5--|--5-5-5-5-5-5-5-0--|
E-------------------|-------------------|

Ending:
E-----|
B-----|
G-----|
D--7--|
A--7--|
E--5--|
            
Hard to play? Try these video lessons and learn fast. | Correct




comments powered by Disqus
↑ Back to top | Tablatures and chords are parodies/interpretations of the original songs. You may use it for private study, scholarship, research or language learning purposes only