» » »

Oh The Guilt Bass tabs (ver.2)

Artists:  A B C D E F G H I J K L M N O P Q R S T U V W X Y Z # 

Oh The Guilt Bass tabs (ver.2)

Nirvana
Rating:
0/5 (0 votes)

Hard to play? Try these video lessons and learn fast.
                intro:
G--------/--------/--------/-----------------// x2
D--------/--------/--------/-----------------//
A--0-0-0-/--0-0-0-/--0-0-0-/-0-0-0-----------//
E--------/--------/--------/-------2-3-3-3-3-//

verse:
G--------/--------/--------/-----------------// x2
D--------/--------/--------/-----------------//
A--0-0-0-/--0-0-0-/--0-0-0-/-0-0-0-----------//
E--------/--------/--------/-------2-3-3-3-3-//

G------------------// x8
D------------------//
A--0-0-0-----------//
E--------2-3-3-3-3-//

chorus:
G------------------/------------------// x4
D------------------/------------------//
A--0-0-0-0-0-------/--3-3-3-3-3-------//
E------------3-3-3-/------------3-3-3-//

repeat verse

repeat chorus

solo:
G--------/--------/--------/-----------------// x4
D--------/--------/--------/-----------------//
A--0-0-0-/--0-0-0-/--0-0-0-/-0-0-0-----------//
E--------/--------/--------/-------2-3-3-3-3-//

repeat verse

repeat chorus (x8)

ending:
G---------//
D---------//
A--0-0-0--//
E---------//
            
Hard to play? Try these video lessons and learn fast. | Correct




comments powered by Disqus
↑ Back to top | Tablatures and chords are parodies/interpretations of the original songs. You may use it for private study, scholarship, research or language learning purposes only