» » »

Nirvana, Oh The Guilt Tabs (ver.1)

Artists:  A B C D E F G H I J K L M N O P Q R S T U V W X Y Z # 

Oh The Guilt Tabs (ver.1)

Nirvana Tabs
 Rating:
4/5 (4 votes)
Oh The Guilt lessons Tabs too difficult? Try these video lessons and learn fast
1
                # means lighter strike

Intro:
Strum up above the bridge, chime, then turn on fuzzy distortion
1:------------------------
2:------------------------
3:------------------------
4:---6-6-6--0--4-4-4--0---
5:---6-6-6--0--4-4-4--0---
6:---4-4-4--0--2-2-2--0---(4 times) with a lighter striking rapidly 
Then
4:------------------------------------------------------
5:---6-6-6-------6-6-6-------6-6-6-------6-6-6-4-4-4----
6:---4-4-4---#---4-4-4---#---4-4-4---#---4-4-4-2-2-2----

Verse:

4:-----------------------------------------
5:---6-6-6---6-6-6---6-6-6---6-6-6-4-4-4---
6:---4-4-4---4-4-4---4-4-4---4-4-4-2-2-2---

Chorus or  when he says Go:
4:-----------------------------------
5:---6-6-6---4-4-4---3-3-3---4-4-4---
6:---4-4-4---2-2-2---1-1-1---2-2-2---

Solo: he just bends and scratches a lot listen to it you’ll get it


Well that’s it every thing posted it 100% correct
            
Submit corrections

comments powered by Disqus
↑ Back to top | Nirvana Tabs for Oh The Guilt. Lyrics for acoustic guitar and electric guitar. 1 Tablatures and chords are parodies/interpretations of the original songs. You may use it for private study, scholarship, research or language learning purposes only