» » »

Marijuana Tabs (ver.2)

Artists:  A B C D E F G H I J K L M N O P Q R S T U V W X Y Z # 

Marijuana Tabs (ver.2)

Nirvana
Rating:
0/5 (0 votes)

Hard to play? Try these video lessons and learn fast.
                Chorus:
   A           C                E       F#        E       F#       
E|-0-0-0-0-0-0-0-0-0-0-0-0-0--|-----------------|-----------------|
A|-2-2-2-2-2-2-1-1-1-1-1-1-1--|-----------------|-----------------|
G|-2-2-2-2-2-2-0-0-0-0-0-0-0--|-1-1-1-1-3-3-3-3-|-1-1-1-1-3-3-3-3-|
D|-2-2-2-2-2-2-2-2-2-2-2-2-2--|-2-2-2-2-4-4-4-4-|-2-2-2-2-4-4-4-4-|
A|-0-0-0-0-0-0-3-3-3-3-3-3-3--|-2-2-2-2-4-4-4-4-|-2-2-2-2-4-4-4-4-|
E|----------------------------|-0-0-0-0-2-2-2-2-|-0-0-0-0-2-2-2-2-|      
   E       F#
E|-----------------|
A|-----------------|
G|-1-1-1-1-3-3-3-3-|
D|-2-2-2-2-4-4-4-4-|
A|-2-2-2-2-4-4-4-4-|
E|-0-0-0-0-2-2-2-2-|
            
Hard to play? Try these video lessons and learn fast. | Correct




comments powered by Disqus
↑ Back to top | Tablatures and chords are parodies/interpretations of the original songs. You may use it for private study, scholarship, research or language learning purposes only