» » »

Nirvana, Marijuana Bass tabs (ver.2)

Artists:  A B C D E F G H I J K L M N O P Q R S T U V W X Y Z # 

Marijuana Bass tabs (ver.2)

Nirvana Tabs
 Rating:
4/5 (4 votes)
Marijuana lessons Tabs too difficult? Try these video lessons and learn fast
                Tuning: Drop D

Intro:
G|--------|--------|--------|
D|--------|--------|--------|
A|--------|--------|--------|
D|--1--3--|--1--3--|--1--3--|

Verse:
G|--------|
D|--------|
A|--------| x4
D|--1--3--|

G|-----------------|
D|-----------------|
A|-----------------|
D|-6-6-6-6-9-9-9-9-|

G|--------|
D|--------|
A|--------| x4
D|--1--3--|

G|-----------------|
D|-----------------|
A|-----------------|
D|-6-6-6-6-9-9-9-9-|

Chorus:
G|--------|
D|--------|
A|--------| x8
D|--0--2--|

Verse 2:
G|--------|
D|--------|
A|--------| x4
D|--1--3--|

G|-----------------|
D|-----------------|
A|-----------------|
D|-6-6-6-6-9-9-9-9-|

G|--------|
D|--------|
A|--------| x4
D|--1--3--|

G|-----------------|
D|-----------------|
A|-----------------|
D|-6-6-6-6-9-9-9-9-|

Chorus 2:
G|--------|
D|--------|
A|--------| x22
D|--1--3--|

Outro:
G|------------|
D|------------|
A|------------| x10
D|--1--3-/--\-|

G|--------|
D|--------|
A|--------| x4
D|--1--3--|
            
Submit corrections

comments powered by Disqus
↑ Back to top | Nirvana Bass for Marijuana. Lyrics for acoustic guitar and electric guitar. Tablatures and chords are parodies/interpretations of the original songs. You may use it for private study, scholarship, research or language learning purposes only