» » »

Lithium Bass tabs (ver.2)

Artists:  A B C D E F G H I J K L M N O P Q R S T U V W X Y Z # 

Lithium Bass tabs (ver.2)

Nirvana
Rating:
0/5 (0 votes)

Tabs too difficult? Try these video lessons and learn fast.
                5x:
G|----------------|----------------|
D|---------6----7-|----------------|
A|-----6--4----7--|3-3355502-225550|
E|0--04-------5---|----------------|

3x:
G|----------------|----------------|
D|----------------|----------------|
A|--------4--4----|333355552-225555|
E|0--04--4----5--5|----------------|

4x:
G|----------------|----------------|
D|----------------|5--57777--------|
A|7--76--64--4----|--------2-225555|
E|------------5--5|----------------|

3x:
G|----------------|----------------|
D|----------------|55557777--------|
A|--------4--4----|--------2-225555|
E|0--04--4----5--5|----------------|

8x:
G|----------------|
D|----------------|
A|----3--3----3333|
E|5--5----5--5----|

1x:
G|----------------|
D|----------------|
A|555555552-22555-|
E|----------------|

5x:
G|----------------|----------------|
D|----------------|5--57777--------|
A|7--76--64--4----|--------2-225555|
E|------------5--5|----------------|

3x:
G|----------------|----------------|
D|----------------|55557777--------|
A|--------4--4----|--------2-225555|
E|0--04--4----5--5|----------------|

8x:
G|----------------|
D|----------------|
A|----3--3----3333|
E|5--5----5--5----|

1x:
G|----------------|----------------|
D|----------------|----------------|
A|555555552-2255--|----------------|
E|--------------3-|0---------------|
            
Tabs too difficult? Try these video lessons and learn fast.




comments powered by Disqus
↑ Back to top | Tablatures and chords are parodies/interpretations of the original songs. You may use it for private study, scholarship, research or language learning purposes only